  0
SECTION
  2
HEADER
  9
$ACADVER
  1
AC1024
  9
$ACADMAINTVER
 70
   226
  9
$DWGCODEPAGE
  3
ANSI_1252
  9
$LASTSAVEDBY
  1
bmaiden
  9
$INSBASE
 10
0.0
 20
0.0
 30
0.0
  9
$EXTMIN
 10
3.562414819692961
 20
1.003110524141234
 30
0.0
  9
$EXTMAX
 10
14.22908211717545
 20
9.169777821623725
 30
0.0
  9
$LIMMIN
 10
0.0
 20
0.0
  9
$LIMMAX
 10
12.0
 20
9.0
  9
$ORTHOMODE
 70
     0
  9
$REGENMODE
 70
     1
  9
$FILLMODE
 70
     1
  9
$QTEXTMODE
 70
     0
  9
$MIRRTEXT
 70
     1
  9
$LTSCALE
 40
1.0
  9
$ATTMODE
 70
     1
  9
$TEXTSIZE
 40
0.2
  9
$TRACEWID
 40
0.05
  9
$TEXTSTYLE
  7
Standard
  9
$CLAYER
  8
0
  9
$CELTYPE
  6
ByLayer
  9
$CECOLOR
 62
   256
  9
$CELTSCALE
 40
1.0
  9
$DISPSILH
 70
     0
  9
$DIMSCALE
 40
1.0
  9
$DIMASZ
 40
0.18
  9
$DIMEXO
 40
0.0625
  9
$DIMDLI
 40
0.38
  9
$DIMRND
 40
0.0
  9
$DIMDLE
 40
0.0
  9
$DIMEXE
 40
0.18
  9
$DIMTP
 40
0.0
  9
$DIMTM
 40
0.0
  9
$DIMTXT
 40
0.18
  9
$DIMCEN
 40
0.09
  9
$DIMTSZ
 40
0.0
  9
$DIMTOL
 70
     0
  9
$DIMLIM
 70
     0
  9
$DIMTIH
 70
     1
  9
$DIMTOH
 70
     1
  9
$DIMSE1
 70
     0
  9
$DIMSE2
 70
     0
  9
$DIMTAD
 70
     0
  9
$DIMZIN
 70
     0
  9
$DIMBLK
  1

  9
$DIMASO
 70
     1
  9
$DIMSHO
 70
     1
  9
$DIMPOST
  1

  9
$DIMAPOST
  1

  9
$DIMALT
 70
     0
  9
$DIMALTD
 70
     2
  9
$DIMALTF
 40
25.4
  9
$DIMLFAC
 40
1.0
  9
$DIMTOFL
 70
     0
  9
$DIMTVP
 40
0.0
  9
$DIMTIX
 70
     0
  9
$DIMSOXD
 70
     0
  9
$DIMSAH
 70
     0
  9
$DIMBLK1
  1

  9
$DIMBLK2
  1

  9
$DIMSTYLE
  2
Standard
  9
$DIMCLRD
 70
     0
  9
$DIMCLRE
 70
     0
  9
$DIMCLRT
 70
     0
  9
$DIMTFAC
 40
1.0
  9
$DIMGAP
 40
0.09
  9
$DIMJUST
 70
     0
  9
$DIMSD1
 70
     0
  9
$DIMSD2
 70
     0
  9
$DIMTOLJ
 70
     1
  9
$DIMTZIN
 70
     0
  9
$DIMALTZ
 70
     0
  9
$DIMALTTZ
 70
     0
  9
$DIMUPT
 70
     0
  9
$DIMDEC
 70
     4
  9
$DIMTDEC
 70
     4
  9
$DIMALTU
 70
     2
  9
$DIMALTTD
 70
     2
  9
$DIMTXSTY
  7
Standard
  9
$DIMAUNIT
 70
     0
  9
$DIMADEC
 70
     0
  9
$DIMALTRND
 40
0.0
  9
$DIMAZIN
 70
     0
  9
$DIMDSEP
 70
    46
  9
$DIMATFIT
 70
     3
  9
$DIMFRAC
 70
     0
  9
$DIMLDRBLK
  1

  9
$DIMLUNIT
 70
     2
  9
$DIMLWD
 70
    -2
  9
$DIMLWE
 70
    -2
  9
$DIMTMOVE
 70
     0
  9
$DIMFXL
 40
1.0
  9
$DIMFXLON
 70
     0
  9
$DIMJOGANG
 40
0.7853981633974483
  9
$DIMTFILL
 70
     0
  9
$DIMTFILLCLR
 70
     0
  9
$DIMARCSYM
 70
     0
  9
$DIMLTYPE
  6

  9
$DIMLTEX1
  6

  9
$DIMLTEX2
  6

  9
$DIMTXTDIRECTION
 70
     0
  9
$LUNITS
 70
     2
  9
$LUPREC
 70
     4
  9
$SKETCHINC
 40
0.1
  9
$FILLETRAD
 40
0.5
  9
$AUNITS
 70
     0
  9
$AUPREC
 70
     0
  9
$MENU
  1
.
  9
$ELEVATION
 40
0.0
  9
$PELEVATION
 40
0.0
  9
$THICKNESS
 40
0.0
  9
$LIMCHECK
 70
     0
  9
$CHAMFERA
 40
0.0
  9
$CHAMFERB
 40
0.0
  9
$CHAMFERC
 40
0.0
  9
$CHAMFERD
 40
0.0
  9
$SKPOLY
 70
     0
  9
$TDCREATE
 40
2459157.600601852
  9
$TDUCREATE
 40
2459157.808945428
  9
$TDUPDATE
 40
2459164.385266204
  9
$TDUUPDATE
 40
2459164.593599537
  9
$TDINDWG
 40
0.0020833449
  9
$TDUSRTIMER
 40
0.0020833449
  9
$USRTIMER
 70
     1
  9
$ANGBASE
 50
0.0
  9
$ANGDIR
 70
     0
  9
$PDMODE
 70
     0
  9
$PDSIZE
 40
0.0
  9
$PLINEWID
 40
0.0
  9
$SPLFRAME
 70
     0
  9
$SPLINETYPE
 70
     6
  9
$SPLINESEGS
 70
     8
  9
$HANDSEED
  5
595
  9
$SURFTAB1
 70
     6
  9
$SURFTAB2
 70
     6
  9
$SURFTYPE
 70
     6
  9
$SURFU
 70
     6
  9
$SURFV
 70
     6
  9
$UCSBASE
  2

  9
$UCSNAME
  2

  9
$UCSORG
 10
0.0
 20
0.0
 30
0.0
  9
$UCSXDIR
 10
1.0
 20
0.0
 30
0.0
  9
$UCSYDIR
 10
0.0
 20
1.0
 30
0.0
  9
$UCSORTHOREF
  2

  9
$UCSORTHOVIEW
 70
     0
  9
$UCSORGTOP
 10
0.0
 20
0.0
 30
0.0
  9
$UCSORGBOTTOM
 10
0.0
 20
0.0
 30
0.0
  9
$UCSORGLEFT
 10
0.0
 20
0.0
 30
0.0
  9
$UCSORGRIGHT
 10
0.0
 20
0.0
 30
0.0
  9
$UCSORGFRONT
 10
0.0
 20
0.0
 30
0.0
  9
$UCSORGBACK
 10
0.0
 20
0.0
 30
0.0
  9
$PUCSBASE
  2

  9
$PUCSNAME
  2

  9
$PUCSORG
 10
0.0
 20
0.0
 30
0.0
  9
$PUCSXDIR
 10
1.0
 20
0.0
 30
0.0
  9
$PUCSYDIR
 10
0.0
 20
1.0
 30
0.0
  9
$PUCSORTHOREF
  2

  9
$PUCSORTHOVIEW
 70
     0
  9
$PUCSORGTOP
 10
0.0
 20
0.0
 30
0.0
  9
$PUCSORGBOTTOM
 10
0.0
 20
0.0
 30
0.0
  9
$PUCSORGLEFT
 10
0.0
 20
0.0
 30
0.0
  9
$PUCSORGRIGHT
 10
0.0
 20
0.0
 30
0.0
  9
$PUCSORGFRONT
 10
0.0
 20
0.0
 30
0.0
  9
$PUCSORGBACK
 10
0.0
 20
0.0
 30
0.0
  9
$USERI1
 70
     0
  9
$USERI2
 70
     0
  9
$USERI3
 70
     0
  9
$USERI4
 70
     0
  9
$USERI5
 70
     0
  9
$USERR1
 40
0.0
  9
$USERR2
 40
0.0
  9
$USERR3
 40
0.0
  9
$USERR4
 40
0.0
  9
$USERR5
 40
0.0
  9
$WORLDVIEW
 70
     1
  9
$SHADEDGE
 70
     3
  9
$SHADEDIF
 70
    70
  9
$TILEMODE
 70
     1
  9
$MAXACTVP
 70
    64
  9
$PINSBASE
 10
0.0
 20
0.0
 30
0.0
  9
$PLIMCHECK
 70
     0
  9
$PEXTMIN
 10
0.1666666716337204
 20
0.1666660308837891
 30
0.0
  9
$PEXTMAX
 10
10.83333396911621
 20
8.333333328366279
 30
0.0
  9
$PLIMMIN
 10
-0.25
 20
-0.25
  9
$PLIMMAX
 10
10.75
 20
8.25
  9
$UNITMODE
 70
     0
  9
$VISRETAIN
 70
     1
  9
$PLINEGEN
 70
     0
  9
$PSLTSCALE
 70
     1
  9
$TREEDEPTH
 70
  3020
  9
$CMLSTYLE
  2
Standard
  9
$CMLJUST
 70
     0
  9
$CMLSCALE
 40
1.0
  9
$PROXYGRAPHICS
 70
     1
  9
$MEASUREMENT
 70
     0
  9
$CELWEIGHT
370
    -1
  9
$ENDCAPS
280
     0
  9
$JOINSTYLE
280
     0
  9
$LWDISPLAY
290
     1
  9
$INSUNITS
 70
     1
  9
$HYPERLINKBASE
  1

  9
$STYLESHEET
  1

  9
$XEDIT
290
     1
  9
$CEPSNTYPE
380
     0
  9
$PSTYLEMODE
290
     1
  9
$FINGERPRINTGUID
  2
{68fde1b9-e648-4c7c-b01d-8899d98df2ba}
  9
$VERSIONGUID
  2
{E2618AA0-CC22-8C40-B188-C8732268DBAA}
  9
$EXTNAMES
290
     1
  9
$PSVPSCALE
 40
0.0
  9
$OLESTARTUP
290
     0
  9
$SORTENTS
280
   127
  9
$INDEXCTL
280
     0
  9
$HIDETEXT
280
     1
  9
$XCLIPFRAME
280
     2
  9
$HALOGAP
280
     0
  9
$OBSCOLOR
 70
   257
  9
$OBSLTYPE
280
     0
  9
$INTERSECTIONDISPLAY
280
     0
  9
$INTERSECTIONCOLOR
 70
   257
  9
$DIMASSOC
280
     2
  9
$PROJECTNAME
  1

  9
$CAMERADISPLAY
290
     0
  9
$LENSLENGTH
 40
50.0
  9
$CAMERAHEIGHT
 40
0.0
  9
$STEPSPERSEC
 40
2.0
  9
$STEPSIZE
 40
6.0
  9
$3DDWFPREC
 40
2.0
  9
$PSOLWIDTH
 40
0.25
  9
$PSOLHEIGHT
 40
4.0
  9
$LOFTANG1
 40
1.570796326794896
  9
$LOFTANG2
 40
1.570796326794896
  9
$LOFTMAG1
 40
0.0
  9
$LOFTMAG2
 40
0.0
  9
$LOFTPARAM
 70
     7
  9
$LOFTNORMALS
280
     1
  9
$LATITUDE
 40
37.795
  9
$LONGITUDE
 40
-122.394
  9
$NORTHDIRECTION
 40
0.0
  9
$TIMEZONE
 70
 -8000
  9
$LIGHTGLYPHDISPLAY
280
     1
  9
$TILEMODELIGHTSYNCH
280
     1
  9
$CMATERIAL
347
44
  9
$SOLIDHIST
280
     0
  9
$SHOWHIST
280
     1
  9
$DWFFRAME
280
     2
  9
$DGNFRAME
280
     2
  9
$REALWORLDSCALE
290
     1
  9
$INTERFERECOLOR
 62
   256
  9
$INTERFEREOBJVS
345
33
  9
$INTERFEREVPVS
346
30
  9
$CSHADOW
280
     0
  9
$SHADOWPLANELOCATION
 40
0.0
  0
ENDSEC
  0
SECTION
  2
CLASSES
  0
CLASS
  1
ACDBDICTIONARYWDFLT
  2
AcDbDictionaryWithDefault
  3
ObjectDBX Classes
 90
        0
 91
        1
280
     0
281
     0
  0
CLASS
  1
VISUALSTYLE
  2
AcDbVisualStyle
  3
ObjectDBX Classes
 90
     4095
 91
       24
280
     0
281
     0
  0
CLASS
  1
MATERIAL
  2
AcDbMaterial
  3
ObjectDBX Classes
 90
     1153
 91
        3
280
     0
281
     0
  0
CLASS
  1
SCALE
  2
AcDbScale
  3
ObjectDBX Classes
 90
     1153
 91
       33
280
     0
281
     0
  0
CLASS
  1
TABLESTYLE
  2
AcDbTableStyle
  3
ObjectDBX Classes
 90
     4095
 91
        1
280
     0
281
     0
  0
CLASS
  1
MLEADERSTYLE
  2
AcDbMLeaderStyle
  3
ACDB_MLEADERSTYLE_CLASS
 90
     4095
 91
        1
280
     0
281
     0
  0
CLASS
  1
SUN
  2
AcDbSun
  3
SCENEOE
 90
     1153
 91
        2
280
     0
281
     0
  0
CLASS
  1
RASTERVARIABLES
  2
AcDbRasterVariables
  3
ISM
 90
        0
 91
        1
280
     0
281
     0
  0
CLASS
  1
IMAGEDEF
  2
AcDbRasterImageDef
  3
ISM
 90
        0
 91
        2
280
     0
281
     0
  0
CLASS
  1
IMAGE
  2
AcDbRasterImage
  3
ISM
 90
     2175
 91
        4
280
     0
281
     1
  0
CLASS
  1
IMAGEDEF_REACTOR
  2
AcDbRasterImageDefReactor
  3
ISM
 90
        1
 91
        4
280
     0
281
     0
  0
CLASS
  1
DICTIONARYVAR
  2
AcDbDictionaryVar
  3
ObjectDBX Classes
 90
        0
 91
        5
280
     0
281
     0
  0
CLASS
  1
ACDBSECTIONVIEWSTYLE
  2
AcDbSectionViewStyle
  3
ObjectDBX Classes
 90
     1025
 91
        1
280
     0
281
     0
  0
CLASS
  1
ACDBDETAILVIEWSTYLE
  2
AcDbDetailViewStyle
  3
ObjectDBX Classes
 90
     1025
 91
        1
280
     0
281
     0
  0
CLASS
  1
EXACXREFPANELOBJECT
  2
ExAcXREFPanelObject
  3
EXAC_ESW
 90
     1025
 91
        1
280
     0
281
     0
  0
CLASS
  1
NPOCOLLECTION
  2
AcDbImpNonPersistentObjectsCollection
  3
ObjectDBX Classes
 90
     1153
 91
        1
280
     0
281
     0
  0
CLASS
  1
SORTENTSTABLE
  2
AcDbSortentsTable
  3
ObjectDBX Classes
 90
        0
 91
        1
280
     0
281
     0
  0
CLASS
  1
CELLSTYLEMAP
  2
AcDbCellStyleMap
  3
ObjectDBX Classes
 90
     1152
 91
        1
280
     0
281
     0
  0
ENDSEC
  0
SECTION
  2
TABLES
  0
TABLE
  2
VPORT
  5
8
330
0
100
AcDbSymbolTable
 70
     1
  0
VPORT
  5
29
330
8
100
AcDbSymbolTableRecord
100
AcDbViewportTableRecord
  2
*Active
 70
     0
 10
0.0
 20
0.0
 11
1.0
 21
1.0
 12
11.25985363140222
 22
4.71486047702481
 13
0.0
 23
0.0
 14
0.5
 24
0.5
 15
0.5
 25
0.5
 16
0.0
 26
0.0
 36
1.0
 17
0.0
 27
0.0
 37
0.0
 40
10.01674260134964
 41
2.292712066905615
 42
50.0
 43
0.0
 44
0.0
 50
0.0
 51
0.0
 71
     0
 72
   100
 73
     1
 74
     3
 75
     0
 76
     0
 77
     0
 78
     0
281
     0
 65
     1
110
0.0
120
0.0
130
0.0
111
1.0
121
0.0
131
0.0
112
0.0
122
1.0
132
0.0
 79
     0
146
0.0
348
2F
 60
     3
 61
     5
292
     1
282
     1
141
0.0
142
0.0
 63
   250
361
6D
1001
ACAD_NAV_VCDISPLAY
1070
     3
  0
ENDTAB
  0
TABLE
  2
LTYPE
  5
5
330
0
100
AcDbSymbolTable
 70
     2
  0
LTYPE
  5
14
330
5
100
AcDbSymbolTableRecord
100
AcDbLinetypeTableRecord
  2
ByBlock
 70
     0
  3

 72
    65
 73
     0
 40
0.0
  0
LTYPE
  5
15
330
5
100
AcDbSymbolTableRecord
100
AcDbLinetypeTableRecord
  2
ByLayer
 70
     0
  3

 72
    65
 73
     0
 40
0.0
  0
LTYPE
  5
16
330
5
100
AcDbSymbolTableRecord
100
AcDbLinetypeTableRecord
  2
Continuous
 70
     0
  3
Solid line
 72
    65
 73
     0
 40
0.0
  0
LTYPE
  5
28B
330
5
100
AcDbSymbolTableRecord
100
AcDbLinetypeTableRecord
  2
DASHED
 70
     0
  3
Dashed __ __ __ __ __ __ __ __ __ __ __ __ __ _
 72
    65
 73
     2
 40
0.75
 49
0.5
 74
     0
 49
-0.25
 74
     0
  0
ENDTAB
  0
TABLE
  2
LAYER
  5
2
102
{ACAD_XDICTIONARY
360
2D5
102
}
330
0
100
AcDbSymbolTable
 70
     4
  0
LAYER
  5
10
330
2
100
AcDbSymbolTableRecord
100
AcDbLayerTableRecord
  2
0
 70
     0
 62
     7
  6
Continuous
370
    -3
390
F
347
46
  0
LAYER
  5
A7
330
2
100
AcDbSymbolTableRecord
100
AcDbLayerTableRecord
  2
On Every Page
 70
     0
 62
     7
  6
Continuous
370
    -3
390
F
347
46
  0
LAYER
  5
A8
330
2
100
AcDbSymbolTableRecord
100
AcDbLayerTableRecord
  2
Default
 70
     0
 62
     7
  6
Continuous
370
    -3
390
F
347
46
  0
LAYER
  5
B9
330
2
100
AcDbSymbolTableRecord
100
AcDbLayerTableRecord
  2
Images
 70
     0
 62
     7
  6
Continuous
370
    -3
390
F
347
46
  0
ENDTAB
  0
TABLE
  2
STYLE
  5
3
330
0
100
AcDbSymbolTable
 70
     3
  0
STYLE
  5
11
330
3
100
AcDbSymbolTableRecord
100
AcDbTextStyleTableRecord
  2
Standard
 70
     0
 40
0.0
 41
1.0
 50
0.0
 71
     0
 42
0.2
  3
txt
  4

  0
STYLE
  5
CA
330
3
100
AcDbSymbolTableRecord
100
AcDbTextStyleTableRecord
  2
RockwellBold
 70
     0
 40
0.0
 41
1.0
 50
0.0
 71
     0
 42
0.2
  3
ROCKB.TTF
  4

1001
ACAD
1000
Rockwell
1071
 33554432
  0
STYLE
  5
274
330
3
100
AcDbSymbolTableRecord
100
AcDbTextStyleTableRecord
  2
Montserrat
 70
     0
 40
0.0
 41
1.0
 50
0.0
 71
     0
 42
0.2
  3

  4

1001
ACAD
1000
Montserrat
1071
        0
  0
ENDTAB
  0
TABLE
  2
VIEW
  5
6
330
0
100
AcDbSymbolTable
 70
     0
  0
ENDTAB
  0
TABLE
  2
UCS
  5
7
330
0
100
AcDbSymbolTable
 70
     0
  0
ENDTAB
  0
TABLE
  2
APPID
  5
9
330
0
100
AcDbSymbolTable
 70
     2
  0
APPID
  5
12
330
9
100
AcDbSymbolTableRecord
100
AcDbRegAppTableRecord
  2
ACAD
 70
     0
  0
APPID
  5
363
330
9
100
AcDbSymbolTableRecord
100
AcDbRegAppTableRecord
  2
ACAD_NAV_VCDISPLAY
 70
     0
  0
ENDTAB
  0
TABLE
  2
DIMSTYLE
  5
A
330
0
100
AcDbSymbolTable
 70
     1
100
AcDbDimStyleTable
 71
     0
  0
DIMSTYLE
105
27
330
A
100
AcDbSymbolTableRecord
100
AcDbDimStyleTableRecord
  2
Standard
 70
     0
340
11
  0
ENDTAB
  0
TABLE
  2
BLOCK_RECORD
  5
1
330
0
100
AcDbSymbolTable
 70
    17
  0
BLOCK_RECORD
  5
1F
102
{ACAD_XDICTIONARY
360
514
102
}
330
1
100
AcDbSymbolTableRecord
100
AcDbBlockTableRecord
  2
*Model_Space
340
22
 70
     0
280
     1
281
     0
  0
BLOCK_RECORD
  5
A1
330
1
100
AcDbSymbolTableRecord
100
AcDbBlockTableRecord
  2
*Paper_Space
340
A2
 70
     0
280
     1
281
     0
  0
BLOCK_RECORD
  5
6E
330
1
100
AcDbSymbolTableRecord
100
AcDbBlockTableRecord
  2
_DiamondBlank
340
0
 70
     0
280
     1
281
     0
  0
BLOCK_RECORD
  5
75
330
1
100
AcDbSymbolTableRecord
100
AcDbBlockTableRecord
  2
_DiamondFilled
340
0
 70
     0
280
     1
281
     0
  0
BLOCK_RECORD
  5
79
330
1
100
AcDbSymbolTableRecord
100
AcDbBlockTableRecord
  2
_OpenRight
340
0
 70
     0
280
     1
281
     0
  0
BLOCK_RECORD
  5
7F
330
1
100
AcDbSymbolTableRecord
100
AcDbBlockTableRecord
  2
_Open120
340
0
 70
     0
280
     1
281
     0
  0
BLOCK_RECORD
  5
85
330
1
100
AcDbSymbolTableRecord
100
AcDbBlockTableRecord
  2
_TriangleBlank
340
0
 70
     0
280
     1
281
     0
  0
BLOCK_RECORD
  5
8B
330
1
100
AcDbSymbolTableRecord
100
AcDbBlockTableRecord
  2
_TriangleFilled
340
0
 70
     0
280
     1
281
     0
  0
BLOCK_RECORD
  5
8F
330
1
100
AcDbSymbolTableRecord
100
AcDbBlockTableRecord
  2
_SlashLeft
340
0
 70
     0
280
     1
281
     0
  0
BLOCK_RECORD
  5
94
330
1
100
AcDbSymbolTableRecord
100
AcDbBlockTableRecord
  2
_CustomBlank
340
0
 70
     0
280
     1
281
     0
  0
BLOCK_RECORD
  5
97
330
1
100
AcDbSymbolTableRecord
100
AcDbBlockTableRecord
  2
_Star
340
0
 70
     0
280
     1
281
     0
  0
BLOCK_RECORD
  5
CE
330
1
100
AcDbSymbolTableRecord
100
AcDbBlockTableRecord
  2
MODEL_0
340
0
102
{BLKREFS
331
CF
102
}
 70
     0
280
     1
281
     0
  0
BLOCK_RECORD
  5
27E
330
1
100
AcDbSymbolTableRecord
100
AcDbBlockTableRecord
  2
ANNO_0
340
0
102
{BLKREFS
331
341
331
282
102
}
 70
     0
280
     1
281
     0
  0
BLOCK_RECORD
  5
284
330
1
100
AcDbSymbolTableRecord
100
AcDbBlockTableRecord
  2
ANNO_1
340
0
102
{BLKREFS
331
343
331
288
102
}
 70
     0
280
     1
281
     0
  0
BLOCK_RECORD
  5
291
330
1
100
AcDbSymbolTableRecord
100
AcDbBlockTableRecord
  2
ANNO_2
340
0
102
{BLKREFS
331
349
331
295
102
}
 70
     0
280
     1
281
     0
  0
BLOCK_RECORD
  5
29D
330
1
100
AcDbSymbolTableRecord
100
AcDbBlockTableRecord
  2
ANNO_3
340
0
102
{BLKREFS
331
351
331
2A4
102
}
 70
     0
280
     1
281
     0
  0
BLOCK_RECORD
  5
2A1
330
1
100
AcDbSymbolTableRecord
100
AcDbBlockTableRecord
  2
_None
340
0
 70
     0
280
     1
281
     0
  0
BLOCK_RECORD
  5
2A6
330
1
100
AcDbSymbolTableRecord
100
AcDbBlockTableRecord
  2
ANNO_4
340
0
102
{BLKREFS
331
353
331
2AA
102
}
 70
     0
280
     1
281
     0
  0
BLOCK_RECORD
  5
2AC
330
1
100
AcDbSymbolTableRecord
100
AcDbBlockTableRecord
  2
ANNO_5
340
0
102
{BLKREFS
331
355
331
2B0
102
}
 70
     0
280
     1
281
     0
  0
ENDTAB
  0
ENDSEC
  0
SECTION
  2
BLOCKS
  0
BLOCK
  5
20
330
1F
100
AcDbEntity
  8
0
100
AcDbBlockBegin
  2
*Model_Space
 70
     0
 10
0.0
 20
0.0
 30
0.0
  3
*Model_Space
  1

  0
ENDBLK
  5
21
330
1F
100
AcDbEntity
  8
0
100
AcDbBlockEnd
  0
BLOCK
  5
A3
330
A1
100
AcDbEntity
 67
     1
  8
0
100
AcDbBlockBegin
  2
*Paper_Space
 70
     0
 10
0.0
 20
0.0
 30
0.0
  3
*Paper_Space
  1

  0
ENDBLK
  5
A4
330
A1
100
AcDbEntity
 67
     1
  8
0
100
AcDbBlockEnd
  0
BLOCK
  5
6F
330
6E
100
AcDbEntity
  8
0
100
AcDbBlockBegin
  2
_DiamondBlank
 70
     0
 10
0.0
 20
0.0
 30
0.0
  3
_DiamondBlank
  1

  0
LINE
  5
71
330
6E
100
AcDbEntity
  8
0
  6
ByBlock
 62
     0
370
    -2
100
AcDbLine
 10
0.0
 20
0.0
 30
0.0
 11
-0.5
 21
0.3333333333333333
 31
0.0
  0
LINE
  5
72
330
6E
100
AcDbEntity
  8
0
  6
ByBlock
 62
     0
370
    -2
100
AcDbLine
 10
0.0
 20
0.0
 30
0.0
 11
-0.5
 21
-0.3333333333333333
 31
0.0
  0
LINE
  5
73
330
6E
100
AcDbEntity
  8
0
  6
ByBlock
 62
     0
370
    -2
100
AcDbLine
 10
-0.5
 20
0.3333333333333333
 30
0.0
 11
-1.0
 21
0.0
 31
0.0
  0
LINE
  5
74
330
6E
100
AcDbEntity
  8
0
  6
ByBlock
 62
     0
370
    -2
100
AcDbLine
 10
-0.5
 20
-0.3333333333333333
 30
0.0
 11
-1.0
 21
0.0
 31
0.0
  0
ENDBLK
  5
70
330
6E
100
AcDbEntity
  8
0
100
AcDbBlockEnd
  0
BLOCK
  5
76
330
75
100
AcDbEntity
  8
0
100
AcDbBlockBegin
  2
_DiamondFilled
 70
     0
 10
0.0
 20
0.0
 30
0.0
  3
_DiamondFilled
  1

  0
SOLID
  5
78
330
75
100
AcDbEntity
  8
0
  6
ByBlock
 62
     0
370
    -2
100
AcDbTrace
 10
0.0
 20
0.0
 30
0.0
 11
-0.5
 21
-0.3333333333333333
 31
0.0
 12
-0.5
 22
0.3333333333333333
 32
0.0
 13
-1.0
 23
0.0
 33
0.0
  0
ENDBLK
  5
77
330
75
100
AcDbEntity
  8
0
100
AcDbBlockEnd
  0
BLOCK
  5
7A
330
79
100
AcDbEntity
  8
0
100
AcDbBlockBegin
  2
_OpenRight
 70
     0
 10
0.0
 20
0.0
 30
0.0
  3
_OpenRight
  1

  0
LINE
  5
7C
330
79
100
AcDbEntity
  8
0
  6
ByBlock
 62
     0
370
    -2
100
AcDbLine
 10
0.0
 20
0.0
 30
0.0
 11
-1.0
 21
1.0
 31
0.0
  0
LINE
  5
7D
330
79
100
AcDbEntity
  8
0
  6
ByBlock
 62
     0
370
    -2
100
AcDbLine
 10
0.0
 20
0.0
 30
0.0
 11
-1.0
 21
0.0
 31
0.0
  0
LINE
  5
7E
330
79
100
AcDbEntity
  8
0
  6
ByBlock
 62
     0
370
    -2
100
AcDbLine
 10
0.0
 20
0.0
 30
0.0
 11
-1.0
 21
-1.0
 31
0.0
  0
ENDBLK
  5
7B
330
79
100
AcDbEntity
  8
0
100
AcDbBlockEnd
  0
BLOCK
  5
80
330
7F
100
AcDbEntity
  8
0
100
AcDbBlockBegin
  2
_Open120
 70
     0
 10
0.0
 20
0.0
 30
0.0
  3
_Open120
  1

  0
LINE
  5
82
330
7F
100
AcDbEntity
  8
0
  6
ByBlock
 62
     0
370
    -2
100
AcDbLine
 10
0.0
 20
0.0
 30
0.0
 11
-1.0
 21
1.72992922008979
 31
0.0
  0
LINE
  5
83
330
7F
100
AcDbEntity
  8
0
  6
ByBlock
 62
     0
370
    -2
100
AcDbLine
 10
0.0
 20
0.0
 30
0.0
 11
-1.0
 21
0.0
 31
0.0
  0
LINE
  5
84
330
7F
100
AcDbEntity
  8
0
  6
ByBlock
 62
     0
370
    -2
100
AcDbLine
 10
0.0
 20
0.0
 30
0.0
 11
-1.0
 21
-1.72992922008979
 31
0.0
  0
ENDBLK
  5
81
330
7F
100
AcDbEntity
  8
0
100
AcDbBlockEnd
  0
BLOCK
  5
86
330
85
100
AcDbEntity
  8
0
100
AcDbBlockBegin
  2
_TriangleBlank
 70
     0
 10
0.0
 20
0.0
 30
0.0
  3
_TriangleBlank
  1

  0
LINE
  5
88
330
85
100
AcDbEntity
  8
0
  6
ByBlock
 62
     0
370
    -2
100
AcDbLine
 10
0.0
 20
0.0
 30
0.0
 11
-1.0
 21
0.3333333333333333
 31
0.0
  0
LINE
  5
89
330
85
100
AcDbEntity
  8
0
  6
ByBlock
 62
     0
370
    -2
100
AcDbLine
 10
-1.0
 20
0.3333333333333333
 30
0.0
 11
-1.0
 21
-0.3333333333333333
 31
0.0
  0
LINE
  5
8A
330
85
100
AcDbEntity
  8
0
  6
ByBlock
 62
     0
370
    -2
100
AcDbLine
 10
-1.0
 20
-0.3333333333333333
 30
0.0
 11
0.0
 21
0.0
 31
0.0
  0
ENDBLK
  5
87
330
85
100
AcDbEntity
  8
0
100
AcDbBlockEnd
  0
BLOCK
  5
8C
330
8B
100
AcDbEntity
  8
0
100
AcDbBlockBegin
  2
_TriangleFilled
 70
     0
 10
0.0
 20
0.0
 30
0.0
  3
_TriangleFilled
  1

  0
SOLID
  5
8E
330
8B
100
AcDbEntity
  8
0
  6
ByBlock
 62
     0
370
    -2
100
AcDbTrace
 10
0.0
 20
0.0
 30
0.0
 11
-1.0
 21
0.3333333333333333
 31
0.0
 12
-1.0
 22
-0.3333333333333333
 32
0.0
 13
-1.0
 23
-0.3333333333333333
 33
0.0
  0
ENDBLK
  5
8D
330
8B
100
AcDbEntity
  8
0
100
AcDbBlockEnd
  0
BLOCK
  5
90
330
8F
100
AcDbEntity
  8
0
100
AcDbBlockBegin
  2
_SlashLeft
 70
     0
 10
0.0
 20
0.0
 30
0.0
  3
_SlashLeft
  1

  0
LINE
  5
92
330
8F
100
AcDbEntity
  8
0
  6
ByBlock
 62
     0
370
    -2
100
AcDbLine
 10
-0.5
 20
0.5
 30
0.0
 11
0.5
 21
-0.5
 31
0.0
  0
LINE
  5
93
330
8F
100
AcDbEntity
  8
0
  6
ByBlock
 62
     0
370
    -2
100
AcDbLine
 10
0.0
 20
0.0
 30
0.0
 11
-1.0
 21
0.0
 31
0.0
  0
ENDBLK
  5
91
330
8F
100
AcDbEntity
  8
0
100
AcDbBlockEnd
  0
BLOCK
  5
95
330
94
100
AcDbEntity
  8
0
100
AcDbBlockBegin
  2
_CustomBlank
 70
     0
 10
0.0
 20
0.0
 30
0.0
  3
_CustomBlank
  1

  0
ENDBLK
  5
96
330
94
100
AcDbEntity
  8
0
100
AcDbBlockEnd
  0
BLOCK
  5
98
330
97
100
AcDbEntity
  8
0
100
AcDbBlockBegin
  2
_Star
 70
     0
 10
0.0
 20
0.0
 30
0.0
  3
_Star
  1

  0
LINE
  5
9A
330
97
100
AcDbEntity
  8
0
  6
ByBlock
 62
     0
370
    -2
100
AcDbLine
 10
-0.5
 20
0.0
 30
0.0
 11
0.5
 21
0.0
 31
0.0
  0
LINE
  5
9B
330
97
100
AcDbEntity
  8
0
  6
ByBlock
 62
     0
370
    -2
100
AcDbLine
 10
-0.25
 20
0.4330127018922193
 30
0.0
 11
0.25
 21
-0.4330127018922193
 31
0.0
  0
LINE
  5
9C
330
97
100
AcDbEntity
  8
0
  6
ByBlock
 62
     0
370
    -2
100
AcDbLine
 10
0.25
 20
0.4330127018922193
 30
0.0
 11
-0.25
 21
-0.4330127018922193
 31
0.0
  0
LINE
  5
9D
330
97
100
AcDbEntity
  8
0
  6
ByBlock
 62
     0
370
    -2
100
AcDbLine
 10
-0.5
 20
0.0
 30
0.0
 11
-1.0
 21
0.0
 31
0.0
  0
ENDBLK
  5
99
330
97
100
AcDbEntity
  8
0
100
AcDbBlockEnd
  0
BLOCK
  5
278
330
CE
100
AcDbEntity
  8
0
100
AcDbBlockBegin
  2
MODEL_0
 70
     0
 10
0.0
 20
0.0
 30
0.0
  3
MODEL_0
  1

  0
LINE
  5
D0
330
CE
100
AcDbEntity
  8
Default
370
    35
100
AcDbLine
 10
1.499999523162841
 20
1.447916030883789
 30
0.0
 11
10.78645706176758
 21
1.447916030883789
 31
0.0
  0
LINE
  5
D1
330
CE
100
AcDbEntity
  8
Default
370
    35
100
AcDbLine
 10
10.78645706176758
 20
1.447916030883789
 30
0.0
 11
10.78645706176758
 21
7.166666030883789
 31
0.0
  0
LINE
  5
D2
330
CE
100
AcDbEntity
  8
Default
370
    35
100
AcDbLine
 10
10.78645706176758
 20
7.166666030883789
 30
0.0
 11
1.499999523162841
 21
7.166666030883789
 31
0.0
  0
LINE
  5
D3
330
CE
100
AcDbEntity
  8
Default
370
    35
100
AcDbLine
 10
1.499999523162841
 20
7.166666030883789
 30
0.0
 11
1.499999523162841
 21
1.447916030883789
 31
0.0
  0
LINE
  5
D4
330
CE
100
AcDbEntity
  8
Default
 48
0.5
370
    15
100
AcDbLine
 10
3.035183906555175
 20
5.690459966659545
 30
0.0
 11
3.075654029846191
 21
5.987853050231933
 31
0.0
  0
LINE
  5
D5
330
CE
100
AcDbEntity
  8
Default
 48
0.5
370
    15
100
AcDbLine
 10
3.075654029846191
 20
5.987853050231933
 30
0.0
 11
3.07564091682434
 21
5.987919092178344
 31
0.0
  0
LINE
  5
D6
330
CE
100
AcDbEntity
  8
0
 60
     1
100
AcDbLine
 10
3.07564091682434
 20
5.987919092178344
 30
0.0
 11
3.035183906555175
 21
5.690459966659545
 31
0.0
  0
LINE
  5
D7
330
CE
100
AcDbEntity
  8
Default
 48
0.5
370
    15
100
AcDbLine
 10
3.035159111022949
 20
5.69058609008789
 30
0.0
 11
2.972266912460327
 21
5.228379964828491
 31
0.0
  0
LINE
  5
D8
330
CE
100
AcDbEntity
  8
Default
 48
0.5
370
    15
100
AcDbLine
 10
2.972266912460327
 20
5.228379964828491
 30
0.0
 11
2.925009965896606
 21
4.881083011627197
 31
0.0
  0
LINE
  5
D9
330
CE
100
AcDbEntity
  8
0
 60
     1
100
AcDbLine
 10
2.925009965896606
 20
4.881083011627197
 30
0.0
 11
3.035159111022949
 21
5.69058609008789
 31
0.0
  0
LINE
  5
DA
330
CE
100
AcDbEntity
  8
Default
 48
0.5
370
    15
100
AcDbLine
 10
5.86566686630249
 20
2.911903858184814
 30
0.0
 11
5.865703105926513
 21
2.911980152130126
 31
0.0
  0
LINE
  5
DB
330
CE
100
AcDbEntity
  8
0
 60
     1
100
AcDbLine
 10
5.865703105926513
 20
2.911980152130126
 30
0.0
 11
5.86566686630249
 21
2.911903858184814
 31
0.0
  0
LINE
  5
DC
330
CE
100
AcDbEntity
  8
Default
 48
0.5
370
    15
100
AcDbLine
 10
4.568250179290771
 20
6.118109941482543
 30
0.0
 11
4.565199851989746
 21
6.125854969024658
 31
0.0
  0
LINE
  5
DD
330
CE
100
AcDbEntity
  8
0
 60
     1
100
AcDbLine
 10
4.565199851989746
 20
6.125854969024658
 30
0.0
 11
4.568250179290771
 21
6.118109941482543
 31
0.0
  0
LINE
  5
DE
330
CE
100
AcDbEntity
  8
Default
 48
0.5
370
    15
100
AcDbLine
 10
5.254474163055419
 20
6.177170038223266
 30
0.0
 11
5.251105785369873
 21
6.184685945510864
 31
0.0
  0
LINE
  5
DF
330
CE
100
AcDbEntity
  8
0
 60
     1
100
AcDbLine
 10
5.251105785369873
 20
6.184685945510864
 30
0.0
 11
5.254474163055419
 21
6.177170038223266
 31
0.0
  0
LINE
  5
E0
330
CE
100
AcDbEntity
  8
Default
 48
0.5
370
    15
100
AcDbLine
 10
6.505955219268798
 20
6.284969091415405
 30
0.0
 11
6.502106189727783
 21
6.291985034942626
 31
0.0
  0
LINE
  5
E1
330
CE
100
AcDbEntity
  8
0
 60
     1
100
AcDbLine
 10
6.502106189727783
 20
6.291985034942626
 30
0.0
 11
6.505955219268798
 21
6.284969091415405
 31
0.0
  0
LINE
  5
E2
330
CE
100
AcDbEntity
  8
Default
 48
0.5
370
    15
100
AcDbLine
 10
7.078132152557373
 20
6.33425498008728
 30
0.0
 11
7.074090957641601
 21
6.341044902801513
 31
0.0
  0
LINE
  5
E3
330
CE
100
AcDbEntity
  8
0
 60
     1
100
AcDbLine
 10
7.074090957641601
 20
6.341044902801513
 30
0.0
 11
7.078132152557373
 21
6.33425498008728
 31
0.0
  0
LINE
  5
E4
330
CE
100
AcDbEntity
  8
Default
 48
0.5
370
    15
100
AcDbLine
 10
7.618535995483398
 20
6.380846977233886
 30
0.0
 11
7.614356994628906
 21
6.387383937835693
 31
0.0
  0
LINE
  5
E5
330
CE
100
AcDbEntity
  8
0
 60
     1
100
AcDbLine
 10
7.614356994628906
 20
6.387383937835693
 30
0.0
 11
7.618535995483398
 21
6.380846977233886
 31
0.0
  0
LINE
  5
E6
330
CE
100
AcDbEntity
  8
Default
 48
0.5
370
    15
100
AcDbLine
 10
8.11423110961914
 20
6.42354393005371
 30
0.0
 11
8.109916687011718
 21
6.429888010025024
 31
0.0
  0
LINE
  5
E7
330
CE
100
AcDbEntity
  8
Default
 48
0.5
370
    15
100
AcDbLine
 10
8.109916687011718
 20
6.429888010025024
 30
0.0
 11
8.109369277954101
 21
6.423125028610229
 31
0.0
  0
LINE
  5
E8
330
CE
100
AcDbEntity
  8
0
 60
     1
100
AcDbLine
 10
8.109369277954101
 20
6.423125028610229
 30
0.0
 11
8.11423110961914
 21
6.42354393005371
 31
0.0
  0
LINE
  5
E9
330
CE
100
AcDbEntity
  8
Default
 48
0.5
370
    15
100
AcDbLine
 10
8.594982147216796
 20
6.471493005752563
 30
0.0
 11
8.599417686462402
 21
6.465334892272949
 31
0.0
  0
LINE
  5
EA
330
CE
100
AcDbEntity
  8
0
 60
     1
100
AcDbLine
 10
8.599417686462402
 20
6.465334892272949
 30
0.0
 11
8.594982147216796
 21
6.471493005752563
 31
0.0
  0
LINE
  5
EB
330
CE
100
AcDbEntity
  8
Default
 48
0.5
370
    15
100
AcDbLine
 10
2.923353910446166
 20
4.869159936904907
 30
0.0
 11
2.923379898071289
 21
4.86910605430603
 31
0.0
  0
LINE
  5
EC
330
CE
100
AcDbEntity
  8
Default
 48
0.5
370
    15
100
AcDbLine
 10
2.923379898071289
 20
4.86910605430603
 30
0.0
 11
2.928126096725463
 21
4.859033107757568
 31
0.0
  0
LINE
  5
ED
330
CE
100
AcDbEntity
  8
0
 60
     1
100
AcDbLine
 10
2.928126096725463
 20
4.859033107757568
 30
0.0
 11
2.923353910446166
 21
4.869159936904907
 31
0.0
  0
LINE
  5
EE
330
CE
100
AcDbEntity
  8
Default
 48
0.5
370
    15
100
AcDbLine
 10
4.078302860260009
 20
2.269164085388183
 30
0.0
 11
4.05883502960205
 21
2.459225177764892
 31
0.0
  0
LINE
  5
EF
330
CE
100
AcDbEntity
  8
Default
 48
0.5
370
    15
100
AcDbLine
 10
4.05883502960205
 20
2.459225177764892
 30
0.0
 11
4.044073104858398
 21
2.490555763244628
 31
0.0
  0
LINE
  5
F0
330
CE
100
AcDbEntity
  8
Default
 48
0.5
370
    15
100
AcDbLine
 10
4.044073104858398
 20
2.490555763244628
 30
0.0
 11
4.040487766265869
 21
2.525361061096191
 31
0.0
  0
LINE
  5
F1
330
CE
100
AcDbEntity
  8
Default
 48
0.5
370
    15
100
AcDbLine
 10
4.040487766265869
 20
2.525361061096191
 30
0.0
 11
4.040470123291015
 21
2.52554178237915
 31
0.0
  0
LINE
  5
F2
330
CE
100
AcDbEntity
  8
0
 60
     1
100
AcDbLine
 10
4.040470123291015
 20
2.52554178237915
 30
0.0
 11
4.078302860260009
 21
2.269164085388183
 31
0.0
  0
LINE
  5
F3
330
CE
100
AcDbEntity
  8
Default
 48
0.5
370
    15
100
AcDbLine
 10
3.081851959228515
 20
5.990080118179321
 30
0.0
 11
3.248699903488159
 21
5.389040946960449
 31
0.0
  0
LINE
  5
F4
330
CE
100
AcDbEntity
  8
Default
 48
0.5
370
    15
100
AcDbLine
 10
3.248699903488159
 20
5.389040946960449
 30
0.0
 11
3.61558198928833
 21
4.067532062530517
 31
0.0
  0
LINE
  5
F5
330
CE
100
AcDbEntity
  8
Default
 48
0.5
370
    15
100
AcDbLine
 10
3.61558198928833
 20
4.067532062530517
 30
0.0
 11
4.059937953948974
 21
2.466835021972656
 31
0.0
  0
LINE
  5
F6
330
CE
100
AcDbEntity
  8
Default
 48
0.5
370
    15
100
AcDbLine
 10
4.059937953948974
 20
2.466835021972656
 30
0.0
 11
4.05883502960205
 21
2.459225177764892
 31
0.0
  0
LINE
  5
F7
330
CE
100
AcDbEntity
  8
0
 60
     1
100
AcDbLine
 10
4.05883502960205
 20
2.459225177764892
 30
0.0
 11
3.081851959228515
 21
5.990080118179321
 31
0.0
  0
LINE
  5
F8
330
CE
100
AcDbEntity
  8
Default
 48
0.5
370
    15
100
AcDbLine
 10
7.104162216186523
 20
6.336541891098022
 30
0.0
 11
7.336427211761474
 21
5.947540998458862
 31
0.0
  0
LINE
  5
F9
330
CE
100
AcDbEntity
  8
0
 60
     1
100
AcDbLine
 10
7.336427211761474
 20
5.947540998458862
 30
0.0
 11
7.104162216186523
 21
6.336541891098022
 31
0.0
  0
LINE
  5
FA
330
CE
100
AcDbEntity
  8
Default
 48
0.5
370
    15
100
AcDbLine
 10
3.099679946899414
 20
5.821846008300781
 30
0.0
 11
2.942130088806152
 21
4.759941101074218
 31
0.0
  0
LINE
  5
FB
330
CE
100
AcDbEntity
  8
Default
 48
0.5
370
    15
100
AcDbLine
 10
2.942130088806152
 20
4.759941101074218
 30
0.0
 11
2.94524598121643
 21
4.737893104553222
 31
0.0
  0
LINE
  5
FC
330
CE
100
AcDbEntity
  8
0
 60
     1
100
AcDbLine
 10
2.94524598121643
 20
4.737893104553222
 30
0.0
 11
3.099679946899414
 21
5.821846008300781
 31
0.0
  0
LINE
  5
FD
330
CE
100
AcDbEntity
  8
Default
 48
0.5
370
    15
100
AcDbLine
 10
3.859978914260864
 20
6.057104110717773
 30
0.0
 11
3.857263088226318
 21
6.06513500213623
 31
0.0
  0
LINE
  5
FE
330
CE
100
AcDbEntity
  8
Default
 48
0.5
370
    15
100
AcDbLine
 10
3.857263088226318
 20
6.06513500213623
 30
0.0
 11
3.858045101165771
 21
6.056936979293823
 31
0.0
  0
LINE
  5
FF
330
CE
100
AcDbEntity
  8
0
 60
     1
100
AcDbLine
 10
3.858045101165771
 20
6.056936979293823
 30
0.0
 11
3.859978914260864
 21
6.057104110717773
 31
0.0
  0
LINE
  5
100
330
CE
100
AcDbEntity
  8
Default
 48
0.5
370
    15
100
AcDbLine
 10
5.899148941040039
 20
6.232701063156127
 30
0.0
 11
5.895523071289062
 21
6.239958047866821
 31
0.0
  0
LINE
  5
101
330
CE
100
AcDbEntity
  8
0
 60
     1
100
AcDbLine
 10
5.895523071289062
 20
6.239958047866821
 30
0.0
 11
5.899148941040039
 21
6.232701063156127
 31
0.0
  0
LINE
  5
102
330
CE
100
AcDbEntity
  8
Default
 48
0.5
370
    15
100
AcDbLine
 10
7.707223892211914
 20
5.186557054519653
 30
0.0
 11
3.725980997085571
 21
4.589799880981445
 31
0.0
  0
LINE
  5
103
330
CE
100
AcDbEntity
  8
0
 60
     1
100
AcDbLine
 10
3.725980997085571
 20
4.589799880981445
 30
0.0
 11
7.707223892211914
 21
5.186557054519653
 31
0.0
  0
LINE
  5
104
330
CE
100
AcDbEntity
  8
Default
 48
0.5
370
    15
100
AcDbLine
 10
3.76478099822998
 20
4.714068889617919
 30
0.0
 11
3.769186973571777
 21
4.695086002349853
 31
0.0
  0
LINE
  5
105
330
CE
100
AcDbEntity
  8
0
 60
     1
100
AcDbLine
 10
3.769186973571777
 20
4.695086002349853
 30
0.0
 11
3.76478099822998
 21
4.714068889617919
 31
0.0
  0
LINE
  5
106
330
CE
100
AcDbEntity
  8
Default
 48
0.5
370
    15
100
AcDbLine
 10
10.40484046936035
 20
4.031452178955078
 30
0.0
 11
4.060097217559814
 21
2.467923164367675
 31
0.0
  0
LINE
  5
107
330
CE
100
AcDbEntity
  8
0
 60
     1
100
AcDbLine
 10
4.060097217559814
 20
2.467923164367675
 30
0.0
 11
10.40484046936035
 21
4.031452178955078
 31
0.0
  0
LINE
  5
108
330
CE
100
AcDbEntity
  8
Default
 48
0.5
370
    15
100
AcDbLine
 10
4.059937953948974
 20
2.466835021972656
 30
0.0
 11
4.060097217559814
 21
2.467923164367675
 31
0.0
  0
LINE
  5
109
330
CE
100
AcDbEntity
  8
Default
 48
0.5
370
    15
100
AcDbLine
 10
4.060097217559814
 20
2.467923164367675
 30
0.0
 11
3.718620061874389
 21
3.698363780975341
 31
0.0
  0
LINE
  5
10A
330
CE
100
AcDbEntity
  8
0
 60
     1
100
AcDbLine
 10
3.718620061874389
 20
3.698363780975341
 30
0.0
 11
4.059937953948974
 21
2.466835021972656
 31
0.0
  0
LINE
  5
10B
330
CE
100
AcDbEntity
  8
Default
 48
0.5
370
    15
100
AcDbLine
 10
5.865703105926513
 20
2.911980152130126
 30
0.0
 11
8.727910041809082
 21
3.617434978485107
 31
0.0
  0
LINE
  5
10C
330
CE
100
AcDbEntity
  8
0
 60
     1
100
AcDbLine
 10
8.727910041809082
 20
3.617434978485107
 30
0.0
 11
5.865703105926513
 21
2.911980152130126
 31
0.0
  0
LINE
  5
10D
330
CE
100
AcDbEntity
  8
Default
 48
0.5
370
    15
100
AcDbLine
 10
9.026503562927246
 20
4.609200000762939
 30
0.0
 11
3.750888109207153
 21
3.585189819335937
 31
0.0
  0
LINE
  5
10E
330
CE
100
AcDbEntity
  8
0
 60
     1
100
AcDbLine
 10
3.750888109207153
 20
3.585189819335937
 30
0.0
 11
9.026503562927246
 21
4.609200000762939
 31
0.0
  0
LINE
  5
10F
330
CE
100
AcDbEntity
  8
Default
 48
0.5
370
    15
100
AcDbLine
 10
3.75080394744873
 20
3.583942890167236
 30
0.0
 11
3.750888109207153
 21
3.585189819335937
 31
0.0
  0
LINE
  5
110
330
CE
100
AcDbEntity
  8
Default
 48
0.5
370
    15
100
AcDbLine
 10
3.750888109207153
 20
3.585189819335937
 30
0.0
 11
3.451695919036865
 21
4.663050889968872
 31
0.0
  0
LINE
  5
111
330
CE
100
AcDbEntity
  8
0
 60
     1
100
AcDbLine
 10
3.451695919036865
 20
4.663050889968872
 30
0.0
 11
3.75080394744873
 21
3.583942890167236
 31
0.0
  0
LINE
  5
112
330
CE
100
AcDbEntity
  8
Default
 48
0.5
370
    15
100
AcDbLine
 10
8.88632583618164
 20
4.580085039138793
 30
0.0
 11
8.887210845947265
 21
4.581209897994995
 31
0.0
  0
LINE
  5
113
330
CE
100
AcDbEntity
  8
0
 60
     1
100
AcDbLine
 10
8.887210845947265
 20
4.581209897994995
 30
0.0
 11
8.88632583618164
 21
4.580085039138793
 31
0.0
  0
LINE
  5
114
330
CE
100
AcDbEntity
  8
Default
 48
0.5
370
    15
100
AcDbLine
 10
7.557414054870605
 20
5.161874055862426
 30
0.0
 11
7.558084964752197
 21
5.163088083267211
 31
0.0
  0
LINE
  5
115
330
CE
100
AcDbEntity
  8
0
 60
     1
100
AcDbLine
 10
7.558084964752197
 20
5.163088083267211
 30
0.0
 11
7.557414054870605
 21
5.161874055862426
 31
0.0
  0
LINE
  5
116
330
CE
100
AcDbEntity
  8
Default
 48
0.5
370
    15
100
AcDbLine
 10
7.617180824279785
 20
6.390126943588256
 30
0.0
 11
7.61716604232788
 21
6.390182018280029
 31
0.0
  0
LINE
  5
117
330
CE
100
AcDbEntity
  8
0
 60
     1
100
AcDbLine
 10
7.61716604232788
 20
6.390182018280029
 30
0.0
 11
7.617180824279785
 21
6.390126943588256
 31
0.0
  0
LINE
  5
118
330
CE
100
AcDbEntity
  8
Default
 48
0.5
370
    15
100
AcDbLine
 10
3.07564091682434
 20
5.987919092178344
 30
0.0
 11
3.072968959808349
 21
6.001036882400512
 31
0.0
  0
LINE
  5
119
330
CE
100
AcDbEntity
  8
0
 60
     1
100
AcDbLine
 10
3.072968959808349
 20
6.001036882400512
 30
0.0
 11
3.07564091682434
 21
5.987919092178344
 31
0.0
  0
LINE
  5
11A
330
CE
100
AcDbEntity
  8
Default
 48
0.5
370
    15
100
AcDbLine
 10
8.721328735351562
 20
3.609993934631347
 30
0.0
 11
8.721261978149414
 21
3.609921932220458
 31
0.0
  0
LINE
  5
11B
330
CE
100
AcDbEntity
  8
Default
 48
0.5
370
    15
100
AcDbLine
 10
8.721261978149414
 20
3.609921932220458
 30
0.0
 11
5.862091064453125
 21
2.904272079467773
 31
0.0
  0
LINE
  5
11C
330
CE
100
AcDbEntity
  8
0
 60
     1
100
AcDbLine
 10
5.862091064453125
 20
2.904272079467773
 30
0.0
 11
8.721328735351562
 21
3.609993934631347
 31
0.0
  0
LINE
  5
11D
330
CE
100
AcDbEntity
  8
Default
 48
0.5
370
    15
100
AcDbLine
 10
3.032707929611206
 20
5.702723979949951
 30
0.0
 11
3.0326828956604
 21
5.702847003936767
 31
0.0
  0
LINE
  5
11E
330
CE
100
AcDbEntity
  8
0
 60
     1
100
AcDbLine
 10
3.0326828956604
 20
5.702847003936767
 30
0.0
 11
3.032707929611206
 21
5.702723979949951
 31
0.0
  0
LINE
  5
11F
330
CE
100
AcDbEntity
  8
Default
 48
0.5
370
    15
100
AcDbLine
 10
2.923379898071289
 20
4.86910605430603
 30
0.0
 11
2.925009965896606
 21
4.881083011627197
 31
0.0
  0
LINE
  5
120
330
CE
100
AcDbEntity
  8
0
 60
     1
100
AcDbLine
 10
2.925009965896606
 20
4.881083011627197
 30
0.0
 11
2.923379898071289
 21
4.86910605430603
 31
0.0
  0
LINE
  5
121
330
CE
100
AcDbEntity
  8
Default
 48
0.5
370
    15
100
AcDbLine
 10
9.87099266052246
 20
4.772217988967895
 30
0.0
 11
9.025603294372558
 21
4.60807991027832
 31
0.0
  0
LINE
  5
122
330
CE
100
AcDbEntity
  8
0
 60
     1
100
AcDbLine
 10
9.025603294372558
 20
4.60807991027832
 30
0.0
 11
9.87099266052246
 21
4.772217988967895
 31
0.0
  0
LINE
  5
123
330
CE
100
AcDbEntity
  8
Default
 48
0.5
370
    15
100
AcDbLine
 10
9.392753601074218
 20
5.438199043273925
 30
0.0
 11
7.706533908843994
 21
5.185348033905029
 31
0.0
  0
LINE
  5
124
330
CE
100
AcDbEntity
  8
0
 60
     1
100
AcDbLine
 10
7.706533908843994
 20
5.185348033905029
 30
0.0
 11
9.392753601074218
 21
5.438199043273925
 31
0.0
  0
LINE
  5
125
330
CE
100
AcDbEntity
  8
Default
 48
0.5
370
    15
100
AcDbLine
 10
3.615202903747558
 20
4.058413028717041
 30
0.0
 11
4.040470123291015
 21
2.52554178237915
 31
0.0
  0
LINE
  5
126
330
CE
100
AcDbEntity
  8
0
 60
     1
100
AcDbLine
 10
4.040470123291015
 20
2.52554178237915
 30
0.0
 11
3.615202903747558
 21
4.058413028717041
 31
0.0
  0
LINE
  5
127
330
CE
100
AcDbEntity
  8
Default
 48
0.5
370
    15
100
AcDbLine
 10
3.077043056488037
 20
5.99821400642395
 30
0.0
 11
3.248822927474975
 21
5.379033088684082
 31
0.0
  0
LINE
  5
128
330
CE
100
AcDbEntity
  8
0
 60
     1
100
AcDbLine
 10
3.248822927474975
 20
5.379033088684082
 30
0.0
 11
3.077043056488037
 21
5.99821400642395
 31
0.0
  0
LINE
  5
129
330
CE
100
AcDbEntity
  8
Default
 48
0.5
370
    15
100
AcDbLine
 10
8.380197525024414
 20
5.59653091430664
 30
0.0
 11
8.565339088439941
 21
5.315004110336303
 31
0.0
  0
LINE
  5
12A
330
CE
100
AcDbEntity
  8
Default
 48
0.5
370
    15
100
AcDbLine
 10
8.565339088439941
 20
5.315004110336303
 30
0.0
 11
8.570087432861328
 21
5.322092056274414
 31
0.0
  0
LINE
  5
12B
330
CE
100
AcDbEntity
  8
0
 60
     1
100
AcDbLine
 10
8.570087432861328
 20
5.322092056274414
 30
0.0
 11
8.380197525024414
 21
5.59653091430664
 31
0.0
  0
LINE
  5
12C
330
CE
100
AcDbEntity
  8
Default
 48
0.5
370
    15
100
AcDbLine
 10
7.543886184692382
 20
5.46312403678894
 30
0.0
 11
7.560107231140136
 21
5.497088909149169
 31
0.0
  0
LINE
  5
12D
330
CE
100
AcDbEntity
  8
0
 60
     1
100
AcDbLine
 10
7.560107231140136
 20
5.497088909149169
 30
0.0
 11
7.543886184692382
 21
5.46312403678894
 31
0.0
  0
LINE
  5
12E
330
CE
100
AcDbEntity
  8
Default
 48
0.5
370
    15
100
AcDbLine
 10
8.406612396240234
 20
5.611527919769287
 30
0.0
 11
8.393213272094726
 21
5.576739072799682
 31
0.0
  0
LINE
  5
12F
330
CE
100
AcDbEntity
  8
Default
 48
0.5
370
    15
100
AcDbLine
 10
8.393213272094726
 20
5.576739072799682
 30
0.0
 11
8.379704475402832
 21
5.541666030883789
 31
0.0
  0
LINE
  5
130
330
CE
100
AcDbEntity
  8
0
 60
     1
100
AcDbLine
 10
8.379704475402832
 20
5.541666030883789
 30
0.0
 11
8.406612396240234
 21
5.611527919769287
 31
0.0
  0
LINE
  5
131
330
CE
100
AcDbEntity
  8
Default
 48
0.5
370
    15
100
AcDbLine
 10
8.426603317260742
 20
5.581253051757812
 30
0.0
 11
8.393213272094726
 21
5.576739072799682
 31
0.0
  0
LINE
  5
132
330
CE
100
AcDbEntity
  8
Default
 48
0.5
370
    15
100
AcDbLine
 10
8.393213272094726
 20
5.576739072799682
 30
0.0
 11
7.992774009704589
 21
5.52260398864746
 31
0.0
  0
LINE
  5
133
330
CE
100
AcDbEntity
  8
0
 60
     1
100
AcDbLine
 10
7.992774009704589
 20
5.52260398864746
 30
0.0
 11
8.426603317260742
 21
5.581253051757812
 31
0.0
  0
LINE
  5
134
330
CE
100
AcDbEntity
  8
Default
 48
0.5
370
    15
100
AcDbLine
 10
7.544546127319335
 20
5.462007999420166
 30
0.0
 11
7.963072776794433
 21
5.51858901977539
 31
0.0
  0
LINE
  5
135
330
CE
100
AcDbEntity
  8
0
 60
     1
100
AcDbLine
 10
7.963072776794433
 20
5.51858901977539
 30
0.0
 11
7.544546127319335
 21
5.462007999420166
 31
0.0
  0
LINE
  5
136
330
CE
100
AcDbEntity
  8
Default
 48
0.5
370
    15
100
AcDbLine
 10
7.111310958862304
 20
5.933113098144531
 30
0.0
 11
7.043622016906738
 21
6.05802297592163
 31
0.0
  0
LINE
  5
137
330
CE
100
AcDbEntity
  8
0
 60
     1
100
AcDbLine
 10
7.043622016906738
 20
6.05802297592163
 30
0.0
 11
7.111310958862304
 21
5.933113098144531
 31
0.0
  0
LINE
  5
138
330
CE
100
AcDbEntity
  8
Default
 48
0.5
370
    15
100
AcDbLine
 10
7.254980087280273
 20
5.94847297668457
 30
0.0
 11
7.186573982238769
 21
6.072338104248046
 31
0.0
  0
LINE
  5
139
330
CE
100
AcDbEntity
  8
0
 60
     1
100
AcDbLine
 10
7.186573982238769
 20
6.072338104248046
 30
0.0
 11
7.254980087280273
 21
5.94847297668457
 31
0.0
  0
LINE
  5
13A
330
CE
100
AcDbEntity
  8
Default
 48
0.5
370
    15
100
AcDbLine
 10
7.035213947296142
 20
6.003402948379516
 30
0.0
 11
7.054659843444824
 21
6.037653923034667
 31
0.0
  0
LINE
  5
13B
330
CE
100
AcDbEntity
  8
Default
 48
0.5
370
    15
100
AcDbLine
 10
7.054659843444824
 20
6.037653923034667
 30
0.0
 11
7.073954105377197
 21
6.071638107299804
 31
0.0
  0
LINE
  5
13C
330
CE
100
AcDbEntity
  8
0
 60
     1
100
AcDbLine
 10
7.073954105377197
 20
6.071638107299804
 30
0.0
 11
7.035213947296142
 21
6.003402948379516
 31
0.0
  0
LINE
  5
13D
330
CE
100
AcDbEntity
  8
Default
 48
0.5
370
    15
100
AcDbLine
 10
7.018704891204833
 20
6.034013986587524
 30
0.0
 11
7.054659843444824
 21
6.037653923034667
 31
0.0
  0
LINE
  5
13E
330
CE
100
AcDbEntity
  8
Default
 48
0.5
370
    15
100
AcDbLine
 10
7.054659843444824
 20
6.037653923034667
 30
0.0
 11
7.111608028411865
 21
6.043420076370239
 31
0.0
  0
LINE
  5
13F
330
CE
100
AcDbEntity
  8
0
 60
     1
100
AcDbLine
 10
7.111608028411865
 20
6.043420076370239
 30
0.0
 11
7.018704891204833
 21
6.034013986587524
 31
0.0
  0
LINE
  5
140
330
CE
100
AcDbEntity
  8
Default
 48
0.5
370
    15
100
AcDbLine
 10
7.216463088989257
 20
6.086065053939819
 30
0.0
 11
7.197729110717773
 21
6.052139043807983
 31
0.0
  0
LINE
  5
141
330
CE
100
AcDbEntity
  8
Default
 48
0.5
370
    15
100
AcDbLine
 10
7.197729110717773
 20
6.052139043807983
 30
0.0
 11
7.178846836090087
 21
6.01794409751892
 31
0.0
  0
LINE
  5
142
330
CE
100
AcDbEntity
  8
0
 60
     1
100
AcDbLine
 10
7.178846836090087
 20
6.01794409751892
 30
0.0
 11
7.216463088989257
 21
6.086065053939819
 31
0.0
  0
LINE
  5
143
330
CE
100
AcDbEntity
  8
Default
 48
0.5
370
    15
100
AcDbLine
 10
7.233288764953613
 20
6.055737972259521
 30
0.0
 11
7.197729110717773
 21
6.052139043807983
 31
0.0
  0
LINE
  5
144
330
CE
100
AcDbEntity
  8
Default
 48
0.5
370
    15
100
AcDbLine
 10
7.197729110717773
 20
6.052139043807983
 30
0.0
 11
7.141307830810546
 21
6.046426057815551
 31
0.0
  0
LINE
  5
145
330
CE
100
AcDbEntity
  8
0
 60
     1
100
AcDbLine
 10
7.141307830810546
 20
6.046426057815551
 30
0.0
 11
7.233288764953613
 21
6.055737972259521
 31
0.0
  0
LINE
  5
146
330
CE
100
AcDbEntity
  8
Default
 48
0.5
370
    15
100
AcDbLine
 10
3.751146078109741
 20
4.712095975875854
 30
0.0
 11
3.236968994140625
 21
4.637696981430053
 31
0.0
  0
LINE
  5
147
330
CE
100
AcDbEntity
  8
0
 60
     1
100
AcDbLine
 10
3.236968994140625
 20
4.637696981430053
 30
0.0
 11
3.751146078109741
 21
4.712095975875854
 31
0.0
  0
LINE
  5
148
330
CE
100
AcDbEntity
  8
Default
 48
0.5
370
    15
100
AcDbLine
 10
3.785077095031738
 20
4.598658084869384
 30
0.0
 11
3.267568111419677
 21
4.521086931228637
 31
0.0
  0
LINE
  5
149
330
CE
100
AcDbEntity
  8
0
 60
     1
100
AcDbLine
 10
3.267568111419677
 20
4.521086931228637
 30
0.0
 11
3.785077095031738
 21
4.598658084869384
 31
0.0
  0
LINE
  5
14A
330
CE
100
AcDbEntity
  8
Default
 48
0.5
370
    15
100
AcDbLine
 10
3.214032888412475
 20
4.66809606552124
 30
0.0
 11
3.265465021133422
 21
4.641819953918457
 31
0.0
  0
LINE
  5
14B
330
CE
100
AcDbEntity
  8
Default
 48
0.5
370
    15
100
AcDbLine
 10
3.265465021133422
 20
4.641819953918457
 30
0.0
 11
3.31693696975708
 21
4.615524053573608
 31
0.0
  0
LINE
  5
14C
330
CE
100
AcDbEntity
  8
0
 60
     1
100
AcDbLine
 10
3.31693696975708
 20
4.615524053573608
 30
0.0
 11
3.214032888412475
 21
4.66809606552124
 31
0.0
  0
LINE
  5
14D
330
CE
100
AcDbEntity
  8
Default
 48
0.5
370
    15
100
AcDbLine
 10
3.2568941116333
 20
4.674236059188842
 30
0.0
 11
3.265465021133422
 21
4.641819953918457
 31
0.0
  0
LINE
  5
14E
330
CE
100
AcDbEntity
  8
Default
 48
0.5
370
    15
100
AcDbLine
 10
3.265465021133422
 20
4.641819953918457
 30
0.0
 11
3.265948057174682
 21
4.639993906021118
 31
0.0
  0
LINE
  5
14F
330
CE
100
AcDbEntity
  8
0
 60
     1
100
AcDbLine
 10
3.265948057174682
 20
4.639993906021118
 30
0.0
 11
3.2568941116333
 21
4.674236059188842
 31
0.0
  0
LINE
  5
150
330
CE
100
AcDbEntity
  8
Default
 48
0.5
370
    15
100
AcDbLine
 10
3.347737073898315
 20
4.499044895172119
 30
0.0
 11
3.296252965927124
 21
4.525387048721313
 31
0.0
  0
LINE
  5
151
330
CE
100
AcDbEntity
  8
Default
 48
0.5
370
    15
100
AcDbLine
 10
3.296252965927124
 20
4.525387048721313
 30
0.0
 11
3.244808912277221
 21
4.551707983016967
 31
0.0
  0
LINE
  5
152
330
CE
100
AcDbEntity
  8
0
 60
     1
100
AcDbLine
 10
3.244808912277221
 20
4.551707983016967
 30
0.0
 11
3.347737073898315
 21
4.499044895172119
 31
0.0
  0
LINE
  5
153
330
CE
100
AcDbEntity
  8
Default
 48
0.5
370
    15
100
AcDbLine
 10
3.304932117462158
 20
4.492567062377929
 30
0.0
 11
3.296252965927124
 21
4.525387048721313
 31
0.0
  0
LINE
  5
154
330
CE
100
AcDbEntity
  8
Default
 48
0.5
370
    15
100
AcDbLine
 10
3.296252965927124
 20
4.525387048721313
 30
0.0
 11
3.295648097991943
 21
4.527674913406372
 31
0.0
  0
LINE
  5
155
330
CE
100
AcDbEntity
  8
0
 60
     1
100
AcDbLine
 10
3.295648097991943
 20
4.527674913406372
 30
0.0
 11
3.304932117462158
 21
4.492567062377929
 31
0.0
  0
LINE
  5
156
330
CE
100
AcDbEntity
  8
Default
 48
0.5
370
    15
100
AcDbLine
 10
2.942130088806152
 20
4.759941101074218
 30
0.0
 11
2.978429079055786
 21
4.764940023422241
 31
0.0
  0
LINE
  5
157
330
CE
100
AcDbEntity
  8
0
 60
     1
100
AcDbLine
 10
2.978429079055786
 20
4.764940023422241
 30
0.0
 11
2.942130088806152
 21
4.759941101074218
 31
0.0
  0
LINE
  5
158
330
CE
100
AcDbEntity
  8
Default
 48
0.5
370
    15
100
AcDbLine
 10
4.044073104858398
 20
2.490555763244628
 30
0.0
 11
4.049757003784179
 21
2.491950035095214
 31
0.0
  0
LINE
  5
159
330
CE
100
AcDbEntity
  8
0
 60
     1
100
AcDbLine
 10
4.049757003784179
 20
2.491950035095214
 30
0.0
 11
4.044073104858398
 21
2.490555763244628
 31
0.0
  0
LINE
  5
15A
330
CE
100
AcDbEntity
  8
Default
 48
0.5
370
    15
100
AcDbLine
 10
3.035183906555175
 20
5.690459966659545
 30
0.0
 11
3.035159111022949
 21
5.69058609008789
 31
0.0
  0
LINE
  5
15B
330
CE
100
AcDbEntity
  8
0
 60
     1
100
AcDbLine
 10
3.035159111022949
 20
5.69058609008789
 30
0.0
 11
3.035183906555175
 21
5.690459966659545
 31
0.0
  0
LINE
  5
15C
330
CE
100
AcDbEntity
  8
Default
 48
0.5
370
    15
100
AcDbLine
 10
2.972266912460327
 20
5.228379964828491
 30
0.0
 11
2.972244977951049
 21
5.228492975234985
 31
0.0
  0
LINE
  5
15D
330
CE
100
AcDbEntity
  8
0
 60
     1
100
AcDbLine
 10
2.972244977951049
 20
5.228492975234985
 30
0.0
 11
2.972266912460327
 21
5.228379964828491
 31
0.0
  0
LINE
  5
15E
330
CE
100
AcDbEntity
  8
Default
 48
0.5
370
    15
100
AcDbLine
 10
4.040487766265869
 20
2.525361061096191
 30
0.0
 11
3.615202903747558
 21
4.058413028717041
 31
0.0
  0
LINE
  5
15F
330
CE
100
AcDbEntity
  8
Default
 48
0.5
370
    15
100
AcDbLine
 10
3.615202903747558
 20
4.058413028717041
 30
0.0
 11
3.248822927474975
 21
5.379033088684082
 31
0.0
  0
LINE
  5
160
330
CE
100
AcDbEntity
  8
0
 60
     1
100
AcDbLine
 10
3.248822927474975
 20
5.379033088684082
 30
0.0
 11
4.040487766265869
 21
2.525361061096191
 31
0.0
  0
LINE
  5
161
330
CE
100
AcDbEntity
  8
Default
 48
0.5
370
    15
100
AcDbLine
 10
8.885778427124023
 20
4.580931901931762
 30
0.0
 11
8.88632583618164
 21
4.580085039138793
 31
0.0
  0
LINE
  5
162
330
CE
100
AcDbEntity
  8
Default
 48
0.5
370
    15
100
AcDbLine
 10
8.88632583618164
 20
4.580085039138793
 30
0.0
 11
9.870008468627929
 21
4.771126985549926
 31
0.0
  0
LINE
  5
163
330
CE
100
AcDbEntity
  8
Default
 48
0.5
370
    15
100
AcDbLine
 10
9.870008468627929
 20
4.771126985549926
 30
0.0
 11
9.875905990600585
 21
4.762970924377441
 31
0.0
  0
LINE
  5
164
330
CE
100
AcDbEntity
  8
0
 60
     1
100
AcDbLine
 10
9.875905990600585
 20
4.762970924377441
 30
0.0
 11
8.885778427124023
 21
4.580931901931762
 31
0.0
  0
LINE
  5
165
330
CE
100
AcDbEntity
  8
Default
 48
0.5
370
    15
100
AcDbLine
 10
5.86566686630249
 20
2.911903858184814
 30
0.0
 11
8.72784423828125
 21
3.617361068725585
 31
0.0
  0
LINE
  5
166
330
CE
100
AcDbEntity
  8
Default
 48
0.5
370
    15
100
AcDbLine
 10
8.72784423828125
 20
3.617361068725585
 30
0.0
 11
8.727910041809082
 21
3.617434978485107
 31
0.0
  0
LINE
  5
167
330
CE
100
AcDbEntity
  8
0
 60
     1
100
AcDbLine
 10
8.727910041809082
 20
3.617434978485107
 30
0.0
 11
5.86566686630249
 21
2.911903858184814
 31
0.0
  0
LINE
  5
168
330
CE
100
AcDbEntity
  8
Default
 48
0.5
370
    15
100
AcDbLine
 10
8.563899993896484
 20
5.312855958938598
 30
0.0
 11
7.557414054870605
 21
5.161874055862426
 31
0.0
  0
LINE
  5
169
330
CE
100
AcDbEntity
  8
Default
 48
0.5
370
    15
100
AcDbLine
 10
7.557414054870605
 20
5.161874055862426
 30
0.0
 11
7.5568208694458
 21
5.162899017333984
 31
0.0
  0
LINE
  5
16A
330
CE
100
AcDbEntity
  8
0
 60
     1
100
AcDbLine
 10
7.5568208694458
 20
5.162899017333984
 30
0.0
 11
8.563899993896484
 21
5.312855958938598
 31
0.0
  0
LINE
  5
16B
330
CE
100
AcDbEntity
  8
Default
 48
0.5
370
    15
100
AcDbLine
 10
4.595530986785888
 20
6.120410919189453
 30
0.0
 11
4.612449169158935
 21
6.121867895126342
 31
0.0
  0
LINE
  5
16C
330
CE
100
AcDbEntity
  8
Default
 48
0.5
370
    15
100
AcDbLine
 10
4.612449169158935
 20
6.121867895126342
 30
0.0
 11
4.609361171722412
 21
6.129642009735107
 31
0.0
  0
LINE
  5
16D
330
CE
100
AcDbEntity
  8
Default
 48
0.5
370
    15
100
AcDbLine
 10
4.609361171722412
 20
6.129642009735107
 30
0.0
 11
4.565199851989746
 21
6.125854969024658
 31
0.0
  0
LINE
  5
16E
330
CE
100
AcDbEntity
  8
Default
 48
0.5
370
    15
100
AcDbLine
 10
4.565199851989746
 20
6.125854969024658
 30
0.0
 11
4.565722942352294
 21
6.117892980575561
 31
0.0
  0
LINE
  5
16F
330
CE
100
AcDbEntity
  8
Default
 48
0.5
370
    15
100
AcDbLine
 10
4.565722942352294
 20
6.117892980575561
 30
0.0
 11
4.568250179290771
 21
6.118109941482543
 31
0.0
  0
LINE
  5
170
330
CE
100
AcDbEntity
  8
0
 60
     1
100
AcDbLine
 10
4.568250179290771
 20
6.118109941482543
 30
0.0
 11
4.595530986785888
 21
6.120410919189453
 31
0.0
  0
LINE
  5
171
330
CE
100
AcDbEntity
  8
Default
 48
0.5
370
    15
100
AcDbLine
 10
4.565199851989746
 20
6.125854969024658
 30
0.0
 11
4.561079025268554
 21
6.117492914199829
 31
0.0
  0
LINE
  5
172
330
CE
100
AcDbEntity
  8
Default
 48
0.5
370
    15
100
AcDbLine
 10
4.561079025268554
 20
6.117492914199829
 30
0.0
 11
4.565722942352294
 21
6.117892980575561
 31
0.0
  0
LINE
  5
173
330
CE
100
AcDbEntity
  8
0
 60
     1
100
AcDbLine
 10
4.565722942352294
 20
6.117892980575561
 30
0.0
 11
4.565199851989746
 21
6.125854969024658
 31
0.0
  0
LINE
  5
174
330
CE
100
AcDbEntity
  8
Default
 48
0.5
370
    15
100
AcDbLine
 10
5.251105785369873
 20
6.184685945510864
 30
0.0
 11
5.263257026672363
 21
6.185728073120117
 31
0.0
  0
LINE
  5
175
330
CE
100
AcDbEntity
  8
Default
 48
0.5
370
    15
100
AcDbLine
 10
5.263257026672363
 20
6.185728073120117
 30
0.0
 11
5.292556762695312
 21
6.188241004943847
 31
0.0
  0
LINE
  5
176
330
CE
100
AcDbEntity
  8
Default
 48
0.5
370
    15
100
AcDbLine
 10
5.292556762695312
 20
6.188241004943847
 30
0.0
 11
5.295941829681396
 21
6.180742025375366
 31
0.0
  0
LINE
  5
177
330
CE
100
AcDbEntity
  8
Default
 48
0.5
370
    15
100
AcDbLine
 10
5.295941829681396
 20
6.180742025375366
 30
0.0
 11
5.254474163055419
 21
6.177170038223266
 31
0.0
  0
LINE
  5
178
330
CE
100
AcDbEntity
  8
Default
 48
0.5
370
    15
100
AcDbLine
 10
5.254474163055419
 20
6.177170038223266
 30
0.0
 11
5.251393795013427
 21
6.176904916763305
 31
0.0
  0
LINE
  5
179
330
CE
100
AcDbEntity
  8
Default
 48
0.5
370
    15
100
AcDbLine
 10
5.251393795013427
 20
6.176904916763305
 30
0.0
 11
5.245731830596923
 21
6.176417112350463
 31
0.0
  0
LINE
  5
17A
330
CE
100
AcDbEntity
  8
Default
 48
0.5
370
    15
100
AcDbLine
 10
5.245731830596923
 20
6.176417112350463
 30
0.0
 11
4.612449169158935
 21
6.121867895126342
 31
0.0
  0
LINE
  5
17B
330
CE
100
AcDbEntity
  8
0
 60
     1
100
AcDbLine
 10
4.612449169158935
 20
6.121867895126342
 30
0.0
 11
5.251105785369873
 21
6.184685945510864
 31
0.0
  0
LINE
  5
17C
330
CE
100
AcDbEntity
  8
Default
 48
0.5
370
    15
100
AcDbLine
 10
5.251393795013427
 20
6.176904916763305
 30
0.0
 11
5.251105785369873
 21
6.184685945510864
 31
0.0
  0
LINE
  5
17D
330
CE
100
AcDbEntity
  8
Default
 48
0.5
370
    15
100
AcDbLine
 10
5.251105785369873
 20
6.184685945510864
 30
0.0
 11
5.245731830596923
 21
6.176417112350463
 31
0.0
  0
LINE
  5
17E
330
CE
100
AcDbEntity
  8
0
 60
     1
100
AcDbLine
 10
5.245731830596923
 20
6.176417112350463
 30
0.0
 11
5.251393795013427
 21
6.176904916763305
 31
0.0
  0
LINE
  5
17F
330
CE
100
AcDbEntity
  8
Default
 48
0.5
370
    15
100
AcDbLine
 10
6.501996994018554
 20
6.28462791442871
 30
0.0
 11
6.502106189727783
 21
6.291985034942626
 31
0.0
  0
LINE
  5
180
330
CE
100
AcDbEntity
  8
Default
 48
0.5
370
    15
100
AcDbLine
 10
6.502106189727783
 20
6.291985034942626
 30
0.0
 11
6.538836956024169
 21
6.295135021209716
 31
0.0
  0
LINE
  5
181
330
CE
100
AcDbEntity
  8
Default
 48
0.5
370
    15
100
AcDbLine
 10
6.538836956024169
 20
6.295135021209716
 30
0.0
 11
6.542698860168457
 21
6.288134098052978
 31
0.0
  0
LINE
  5
182
330
CE
100
AcDbEntity
  8
Default
 48
0.5
370
    15
100
AcDbLine
 10
6.542698860168457
 20
6.288134098052978
 30
0.0
 11
6.505955219268798
 21
6.284969091415405
 31
0.0
  0
LINE
  5
183
330
CE
100
AcDbEntity
  8
Default
 48
0.5
370
    15
100
AcDbLine
 10
6.505955219268798
 20
6.284969091415405
 30
0.0
 11
6.501996994018554
 21
6.28462791442871
 31
0.0
  0
LINE
  5
184
330
CE
100
AcDbEntity
  8
Default
 48
0.5
370
    15
100
AcDbLine
 10
6.501996994018554
 20
6.28462791442871
 30
0.0
 11
6.4947190284729
 21
6.284001111984252
 31
0.0
  0
LINE
  5
185
330
CE
100
AcDbEntity
  8
Default
 48
0.5
370
    15
100
AcDbLine
 10
6.4947190284729
 20
6.284001111984252
 30
0.0
 11
5.938148021697998
 21
6.23605990409851
 31
0.0
  0
LINE
  5
186
330
CE
100
AcDbEntity
  8
Default
 48
0.5
370
    15
100
AcDbLine
 10
5.938148021697998
 20
6.23605990409851
 30
0.0
 11
5.899148941040039
 21
6.232701063156127
 31
0.0
  0
LINE
  5
187
330
CE
100
AcDbEntity
  8
Default
 48
0.5
370
    15
100
AcDbLine
 10
5.899148941040039
 20
6.232701063156127
 30
0.0
 11
5.895600795745849
 21
6.232394933700561
 31
0.0
  0
LINE
  5
188
330
CE
100
AcDbEntity
  8
Default
 48
0.5
370
    15
100
AcDbLine
 10
5.895600795745849
 20
6.232394933700561
 30
0.0
 11
5.889076232910156
 21
6.231832981109619
 31
0.0
  0
LINE
  5
189
330
CE
100
AcDbEntity
  8
Default
 48
0.5
370
    15
100
AcDbLine
 10
5.889076232910156
 20
6.231832981109619
 30
0.0
 11
5.295941829681396
 21
6.180742025375366
 31
0.0
  0
LINE
  5
18A
330
CE
100
AcDbEntity
  8
0
 60
     1
100
AcDbLine
 10
5.295941829681396
 20
6.180742025375366
 30
0.0
 11
6.501996994018554
 21
6.28462791442871
 31
0.0
  0
LINE
  5
18B
330
CE
100
AcDbEntity
  8
Default
 48
0.5
370
    15
100
AcDbLine
 10
6.4947190284729
 20
6.284001111984252
 30
0.0
 11
6.502106189727783
 21
6.291985034942626
 31
0.0
  0
LINE
  5
18C
330
CE
100
AcDbEntity
  8
0
 60
     1
100
AcDbLine
 10
6.502106189727783
 20
6.291985034942626
 30
0.0
 11
6.4947190284729
 21
6.284001111984252
 31
0.0
  0
LINE
  5
18D
330
CE
100
AcDbEntity
  8
Default
 48
0.5
370
    15
100
AcDbLine
 10
7.104162216186523
 20
6.336541891098022
 30
0.0
 11
7.11278486251831
 21
6.337285041809082
 31
0.0
  0
LINE
  5
18E
330
CE
100
AcDbEntity
  8
Default
 48
0.5
370
    15
100
AcDbLine
 10
7.11278486251831
 20
6.337285041809082
 30
0.0
 11
7.108758926391601
 21
6.34401798248291
 31
0.0
  0
LINE
  5
18F
330
CE
100
AcDbEntity
  8
Default
 48
0.5
370
    15
100
AcDbLine
 10
7.108758926391601
 20
6.34401798248291
 30
0.0
 11
7.074090957641601
 21
6.341044902801513
 31
0.0
  0
LINE
  5
190
330
CE
100
AcDbEntity
  8
Default
 48
0.5
370
    15
100
AcDbLine
 10
7.074090957641601
 20
6.341044902801513
 30
0.0
 11
7.073815822601318
 21
6.333883047103881
 31
0.0
  0
LINE
  5
191
330
CE
100
AcDbEntity
  8
Default
 48
0.5
370
    15
100
AcDbLine
 10
7.073815822601318
 20
6.333883047103881
 30
0.0
 11
7.078132152557373
 21
6.33425498008728
 31
0.0
  0
LINE
  5
192
330
CE
100
AcDbEntity
  8
0
 60
     1
100
AcDbLine
 10
7.078132152557373
 20
6.33425498008728
 30
0.0
 11
7.104162216186523
 21
6.336541891098022
 31
0.0
  0
LINE
  5
193
330
CE
100
AcDbEntity
  8
Default
 48
0.5
370
    15
100
AcDbLine
 10
7.065879821777343
 20
6.333199977874755
 30
0.0
 11
7.074090957641601
 21
6.341044902801513
 31
0.0
  0
LINE
  5
194
330
CE
100
AcDbEntity
  8
0
 60
     1
100
AcDbLine
 10
7.074090957641601
 20
6.341044902801513
 30
0.0
 11
7.065879821777343
 21
6.333199977874755
 31
0.0
  0
LINE
  5
195
330
CE
100
AcDbEntity
  8
Default
 48
0.5
370
    15
100
AcDbLine
 10
7.614356994628906
 20
6.387383937835693
 30
0.0
 11
7.617877960205078
 21
6.387686014175415
 31
0.0
  0
LINE
  5
196
330
CE
100
AcDbEntity
  8
Default
 48
0.5
370
    15
100
AcDbLine
 10
7.617877960205078
 20
6.387686014175415
 30
0.0
 11
7.647130966186523
 21
6.3901948928833
 31
0.0
  0
LINE
  5
197
330
CE
100
AcDbEntity
  8
Default
 48
0.5
370
    15
100
AcDbLine
 10
7.647130966186523
 20
6.3901948928833
 30
0.0
 11
7.651319026947021
 21
6.383671045303344
 31
0.0
  0
LINE
  5
198
330
CE
100
AcDbEntity
  8
Default
 48
0.5
370
    15
100
AcDbLine
 10
7.651319026947021
 20
6.383671045303344
 30
0.0
 11
7.618535995483398
 21
6.380846977233886
 31
0.0
  0
LINE
  5
199
330
CE
100
AcDbEntity
  8
Default
 48
0.5
370
    15
100
AcDbLine
 10
7.618535995483398
 20
6.380846977233886
 30
0.0
 11
7.613936901092529
 21
6.380450963973999
 31
0.0
  0
LINE
  5
19A
330
CE
100
AcDbEntity
  8
Default
 48
0.5
370
    15
100
AcDbLine
 10
7.613936901092529
 20
6.380450963973999
 30
0.0
 11
7.605478763580322
 21
6.379723072052001
 31
0.0
  0
LINE
  5
19B
330
CE
100
AcDbEntity
  8
Default
 48
0.5
370
    15
100
AcDbLine
 10
7.605478763580322
 20
6.379723072052001
 30
0.0
 11
7.11278486251831
 21
6.337285041809082
 31
0.0
  0
LINE
  5
19C
330
CE
100
AcDbEntity
  8
0
 60
     1
100
AcDbLine
 10
7.11278486251831
 20
6.337285041809082
 30
0.0
 11
7.614356994628906
 21
6.387383937835693
 31
0.0
  0
LINE
  5
19D
330
CE
100
AcDbEntity
  8
Default
 48
0.5
370
    15
100
AcDbLine
 10
7.613936901092529
 20
6.380450963973999
 30
0.0
 11
7.614356994628906
 21
6.387383937835693
 31
0.0
  0
LINE
  5
19E
330
CE
100
AcDbEntity
  8
Default
 48
0.5
370
    15
100
AcDbLine
 10
7.614356994628906
 20
6.387383937835693
 30
0.0
 11
7.605478763580322
 21
6.379723072052001
 31
0.0
  0
LINE
  5
19F
330
CE
100
AcDbEntity
  8
0
 60
     1
100
AcDbLine
 10
7.605478763580322
 20
6.379723072052001
 30
0.0
 11
7.613936901092529
 21
6.380450963973999
 31
0.0
  0
LINE
  5
1A0
330
CE
100
AcDbEntity
  8
Default
 48
0.5
370
    15
100
AcDbLine
 10
8.10042667388916
 20
6.422354936599731
 30
0.0
 11
8.109916687011718
 21
6.429888010025024
 31
0.0
  0
LINE
  5
1A1
330
CE
100
AcDbEntity
  8
Default
 48
0.5
370
    15
100
AcDbLine
 10
8.109916687011718
 20
6.429888010025024
 30
0.0
 11
8.140998840332031
 21
6.432554006576538
 31
0.0
  0
LINE
  5
1A2
330
CE
100
AcDbEntity
  8
Default
 48
0.5
370
    15
100
AcDbLine
 10
8.140998840332031
 20
6.432554006576538
 30
0.0
 11
8.1453218460083
 21
6.426222085952758
 31
0.0
  0
LINE
  5
1A3
330
CE
100
AcDbEntity
  8
Default
 48
0.5
370
    15
100
AcDbLine
 10
8.1453218460083
 20
6.426222085952758
 30
0.0
 11
8.11423110961914
 21
6.42354393005371
 31
0.0
  0
LINE
  5
1A4
330
CE
100
AcDbEntity
  8
0
 60
     1
100
AcDbLine
 10
8.11423110961914
 20
6.42354393005371
 30
0.0
 11
8.10042667388916
 21
6.422354936599731
 31
0.0
  0
LINE
  5
1A5
330
CE
100
AcDbEntity
  8
Default
 48
0.5
370
    15
100
AcDbLine
 10
8.584938049316406
 20
6.464087963104248
 30
0.0
 11
8.594982147216796
 21
6.471493005752563
 31
0.0
  0
LINE
  5
1A6
330
CE
100
AcDbEntity
  8
Default
 48
0.5
370
    15
100
AcDbLine
 10
8.594982147216796
 20
6.471493005752563
 30
0.0
 11
8.594317436218261
 21
6.464895963668823
 31
0.0
  0
LINE
  5
1A7
330
CE
100
AcDbEntity
  8
Default
 48
0.5
370
    15
100
AcDbLine
 10
8.594317436218261
 20
6.464895963668823
 30
0.0
 11
8.584938049316406
 21
6.464087963104248
 31
0.0
  0
LINE
  5
1A8
330
CE
100
AcDbEntity
  8
Default
 48
0.5
370
    15
100
AcDbLine
 10
8.584938049316406
 20
6.464087963104248
 30
0.0
 11
8.1453218460083
 21
6.426222085952758
 31
0.0
  0
LINE
  5
1A9
330
CE
100
AcDbEntity
  8
0
 60
     1
100
AcDbLine
 10
8.1453218460083
 20
6.426222085952758
 30
0.0
 11
8.584938049316406
 21
6.464087963104248
 31
0.0
  0
LINE
  5
1AA
330
CE
100
AcDbEntity
  8
Default
 48
0.5
370
    15
100
AcDbLine
 10
8.594982147216796
 20
6.471493005752563
 30
0.0
 11
8.610157012939453
 21
6.47279405593872
 31
0.0
  0
LINE
  5
1AB
330
CE
100
AcDbEntity
  8
Default
 48
0.5
370
    15
100
AcDbLine
 10
8.610157012939453
 20
6.47279405593872
 30
0.0
 11
8.624452590942382
 21
6.47402000427246
 31
0.0
  0
LINE
  5
1AC
330
CE
100
AcDbEntity
  8
Default
 48
0.5
370
    15
100
AcDbLine
 10
8.624452590942382
 20
6.47402000427246
 30
0.0
 11
8.628894805908203
 21
6.467875003814697
 31
0.0
  0
LINE
  5
1AD
330
CE
100
AcDbEntity
  8
Default
 48
0.5
370
    15
100
AcDbLine
 10
8.628894805908203
 20
6.467875003814697
 30
0.0
 11
8.639243125915527
 21
6.468765974044799
 31
0.0
  0
LINE
  5
1AE
330
CE
100
AcDbEntity
  8
0
 60
     1
100
AcDbLine
 10
8.639243125915527
 20
6.468765974044799
 30
0.0
 11
8.594982147216796
 21
6.471493005752563
 31
0.0
  0
LINE
  5
1AF
330
CE
100
AcDbEntity
  8
Default
 48
0.5
370
    15
100
AcDbLine
 10
2.923353910446166
 20
4.869159936904907
 30
0.0
 11
2.940444946289062
 21
4.748353004455566
 31
0.0
  0
LINE
  5
1B0
330
CE
100
AcDbEntity
  8
Default
 48
0.5
370
    15
100
AcDbLine
 10
2.940444946289062
 20
4.748353004455566
 30
0.0
 11
2.94524598121643
 21
4.737893104553222
 31
0.0
  0
LINE
  5
1B1
330
CE
100
AcDbEntity
  8
Default
 48
0.5
370
    15
100
AcDbLine
 10
2.94524598121643
 20
4.737893104553222
 30
0.0
 11
3.381608009338378
 21
4.798401117324829
 31
0.0
  0
LINE
  5
1B2
330
CE
100
AcDbEntity
  8
Default
 48
0.5
370
    15
100
AcDbLine
 10
3.381608009338378
 20
4.798401117324829
 30
0.0
 11
4.06003189086914
 21
2.335606098175048
 31
0.0
  0
LINE
  5
1B3
330
CE
100
AcDbEntity
  8
0
 60
     1
100
AcDbLine
 10
4.06003189086914
 20
2.335606098175048
 30
0.0
 11
2.923353910446166
 21
4.869159936904907
 31
0.0
  0
LINE
  5
1B4
330
CE
100
AcDbEntity
  8
Default
 48
0.5
370
    15
100
AcDbLine
 10
2.921473979949951
 20
4.87877607345581
 30
0.0
 11
2.92336893081665
 21
4.869162082672119
 31
0.0
  0
LINE
  5
1B5
330
CE
100
AcDbEntity
  8
Default
 48
0.5
370
    15
100
AcDbLine
 10
2.92336893081665
 20
4.869162082672119
 30
0.0
 11
2.923379898071289
 21
4.86910605430603
 31
0.0
  0
LINE
  5
1B6
330
CE
100
AcDbEntity
  8
Default
 48
0.5
370
    15
100
AcDbLine
 10
2.923379898071289
 20
4.86910605430603
 30
0.0
 11
2.92664098739624
 21
4.869539022445678
 31
0.0
  0
LINE
  5
1B7
330
CE
100
AcDbEntity
  8
Default
 48
0.5
370
    15
100
AcDbLine
 10
2.92664098739624
 20
4.869539022445678
 30
0.0
 11
2.925009965896606
 21
4.881083011627197
 31
0.0
  0
LINE
  5
1B8
330
CE
100
AcDbEntity
  8
0
 60
     1
100
AcDbLine
 10
2.925009965896606
 20
4.881083011627197
 30
0.0
 11
2.921473979949951
 21
4.87877607345581
 31
0.0
  0
LINE
  5
1B9
330
CE
100
AcDbEntity
  8
Default
 48
0.5
370
    15
100
AcDbLine
 10
2.923353910446166
 20
4.869159936904907
 30
0.0
 11
2.92336893081665
 21
4.869162082672119
 31
0.0
  0
LINE
  5
1BA
330
CE
100
AcDbEntity
  8
0
 60
     1
100
AcDbLine
 10
2.92336893081665
 20
4.869162082672119
 30
0.0
 11
2.923353910446166
 21
4.869159936904907
 31
0.0
  0
LINE
  5
1BB
330
CE
100
AcDbEntity
  8
Default
 48
0.5
370
    15
100
AcDbLine
 10
8.721233367919921
 20
3.609971046447753
 30
0.0
 11
8.721261978149414
 21
3.609921932220458
 31
0.0
  0
LINE
  5
1BC
330
CE
100
AcDbEntity
  8
Default
 48
0.5
370
    15
100
AcDbLine
 10
8.721261978149414
 20
3.609921932220458
 30
0.0
 11
10.39589977264404
 21
4.023223876953125
 31
0.0
  0
LINE
  5
1BD
330
CE
100
AcDbEntity
  8
Default
 48
0.5
370
    15
100
AcDbLine
 10
10.39589977264404
 20
4.023223876953125
 30
0.0
 11
10.36728954315185
 21
3.875813007354736
 31
0.0
  0
LINE
  5
1BE
330
CE
100
AcDbEntity
  8
Default
 48
0.5
370
    15
100
AcDbLine
 10
10.36728954315185
 20
3.875813007354736
 30
0.0
 11
4.078302860260009
 21
2.269164085388183
 31
0.0
  0
LINE
  5
1BF
330
CE
100
AcDbEntity
  8
Default
 48
0.5
370
    15
100
AcDbLine
 10
4.078302860260009
 20
2.269164085388183
 30
0.0
 11
4.063569068908691
 21
2.301267147064208
 31
0.0
  0
LINE
  5
1C0
330
CE
100
AcDbEntity
  8
Default
 48
0.5
370
    15
100
AcDbLine
 10
4.063569068908691
 20
2.301267147064208
 30
0.0
 11
4.06003189086914
 21
2.335606098175048
 31
0.0
  0
LINE
  5
1C1
330
CE
100
AcDbEntity
  8
Default
 48
0.5
370
    15
100
AcDbLine
 10
4.06003189086914
 20
2.335606098175048
 30
0.0
 11
4.044073104858398
 21
2.490555763244628
 31
0.0
  0
LINE
  5
1C2
330
CE
100
AcDbEntity
  8
0
 60
     1
100
AcDbLine
 10
4.044073104858398
 20
2.490555763244628
 30
0.0
 11
8.721233367919921
 21
3.609971046447753
 31
0.0
  0
LINE
  5
1C3
330
CE
100
AcDbEntity
  8
Default
 48
0.5
370
    15
100
AcDbLine
 10
3.615202903747558
 20
4.058413028717041
 30
0.0
 11
3.61558198928833
 21
4.067532062530517
 31
0.0
  0
LINE
  5
1C4
330
CE
100
AcDbEntity
  8
Default
 48
0.5
370
    15
100
AcDbLine
 10
3.61558198928833
 20
4.067532062530517
 30
0.0
 11
3.616538047790527
 21
4.067696094512939
 31
0.0
  0
LINE
  5
1C5
330
CE
100
AcDbEntity
  8
0
 60
     1
100
AcDbLine
 10
3.616538047790527
 20
4.067696094512939
 30
0.0
 11
3.615202903747558
 21
4.058413028717041
 31
0.0
  0
LINE
  5
1C6
330
CE
100
AcDbEntity
  8
Default
 48
0.5
370
    15
100
AcDbLine
 10
5.365899085998535
 20
5.627301931381225
 30
0.0
 11
4.815255165100097
 21
5.565335035324096
 31
0.0
  0
LINE
  5
1C7
330
CE
100
AcDbEntity
  8
Default
 48
0.5
370
    15
100
AcDbLine
 10
4.815255165100097
 20
5.565335035324096
 30
0.0
 11
3.248699903488159
 21
5.389040946960449
 31
0.0
  0
LINE
  5
1C8
330
CE
100
AcDbEntity
  8
Default
 48
0.5
370
    15
100
AcDbLine
 10
3.248699903488159
 20
5.389040946960449
 30
0.0
 11
3.248822927474975
 21
5.379033088684082
 31
0.0
  0
LINE
  5
1C9
330
CE
100
AcDbEntity
  8
Default
 48
0.5
370
    15
100
AcDbLine
 10
3.248822927474975
 20
5.379033088684082
 30
0.0
 11
3.082171916961669
 21
5.979774951934814
 31
0.0
  0
LINE
  5
1CA
330
CE
100
AcDbEntity
  8
Default
 48
0.5
370
    15
100
AcDbLine
 10
3.082171916961669
 20
5.979774951934814
 30
0.0
 11
3.081851959228515
 21
5.990080118179321
 31
0.0
  0
LINE
  5
1CB
330
CE
100
AcDbEntity
  8
Default
 48
0.5
370
    15
100
AcDbLine
 10
3.081851959228515
 20
5.990080118179321
 30
0.0
 11
3.129717111587524
 21
5.994203090667724
 31
0.0
  0
LINE
  5
1CC
330
CE
100
AcDbEntity
  8
Default
 48
0.5
370
    15
100
AcDbLine
 10
3.129717111587524
 20
5.994203090667724
 30
0.0
 11
3.854490995407104
 21
6.056631088256835
 31
0.0
  0
LINE
  5
1CD
330
CE
100
AcDbEntity
  8
Default
 48
0.5
370
    15
100
AcDbLine
 10
3.854490995407104
 20
6.056631088256835
 30
0.0
 11
3.858045101165771
 21
6.056936979293823
 31
0.0
  0
LINE
  5
1CE
330
CE
100
AcDbEntity
  8
Default
 48
0.5
370
    15
100
AcDbLine
 10
3.858045101165771
 20
6.056936979293823
 30
0.0
 11
3.859978914260864
 21
6.057104110717773
 31
0.0
  0
LINE
  5
1CF
330
CE
100
AcDbEntity
  8
Default
 48
0.5
370
    15
100
AcDbLine
 10
3.859978914260864
 20
6.057104110717773
 30
0.0
 11
3.907047986984252
 21
6.061157941818237
 31
0.0
  0
LINE
  5
1D0
330
CE
100
AcDbEntity
  8
Default
 48
0.5
370
    15
100
AcDbLine
 10
3.907047986984252
 20
6.061157941818237
 30
0.0
 11
4.561079025268554
 21
6.117492914199829
 31
0.0
  0
LINE
  5
1D1
330
CE
100
AcDbEntity
  8
0
 60
     1
100
AcDbLine
 10
4.561079025268554
 20
6.117492914199829
 30
0.0
 11
5.365899085998535
 21
5.627301931381225
 31
0.0
  0
LINE
  5
1D2
330
CE
100
AcDbEntity
  8
Default
 48
0.5
370
    15
100
AcDbLine
 10
7.336419105529785
 20
5.947540044784545
 30
0.0
 11
7.104142189025878
 21
6.336494922637939
 31
0.0
  0
LINE
  5
1D3
330
CE
100
AcDbEntity
  8
Default
 48
0.5
370
    15
100
AcDbLine
 10
7.104142189025878
 20
6.336494922637939
 30
0.0
 11
7.104162216186523
 21
6.336541891098022
 31
0.0
  0
LINE
  5
1D4
330
CE
100
AcDbEntity
  8
0
 60
     1
100
AcDbLine
 10
7.104162216186523
 20
6.336541891098022
 30
0.0
 11
7.336419105529785
 21
5.947540044784545
 31
0.0
  0
LINE
  5
1D5
330
CE
100
AcDbEntity
  8
Default
 48
0.5
370
    15
100
AcDbLine
 10
8.895238876342773
 20
6.114975929260253
 30
0.0
 11
8.639243125915527
 21
6.468765974044799
 31
0.0
  0
LINE
  5
1D6
330
CE
100
AcDbEntity
  8
0
 60
     1
100
AcDbLine
 10
8.639243125915527
 20
6.468765974044799
 30
0.0
 11
8.895238876342773
 21
6.114975929260253
 31
0.0
  0
LINE
  5
1D7
330
CE
100
AcDbEntity
  8
Default
 48
0.5
370
    15
100
AcDbLine
 10
7.617093086242675
 20
6.390120029449462
 30
0.0
 11
7.61716604232788
 21
6.390182018280029
 31
0.0
  0
LINE
  5
1D8
330
CE
100
AcDbEntity
  8
Default
 48
0.5
370
    15
100
AcDbLine
 10
7.61716604232788
 20
6.390182018280029
 30
0.0
 11
8.609440803527832
 21
6.475157022476196
 31
0.0
  0
LINE
  5
1D9
330
CE
100
AcDbEntity
  8
Default
 48
0.5
370
    15
100
AcDbLine
 10
8.609440803527832
 20
6.475157022476196
 30
0.0
 11
8.610157012939453
 21
6.47279405593872
 31
0.0
  0
LINE
  5
1DA
330
CE
100
AcDbEntity
  8
0
 60
     1
100
AcDbLine
 10
8.610157012939453
 20
6.47279405593872
 30
0.0
 11
7.617093086242675
 21
6.390120029449462
 31
0.0
  0
LINE
  5
1DB
330
CE
100
AcDbEntity
  8
Default
 48
0.5
370
    15
100
AcDbLine
 10
7.617877960205078
 20
6.387686014175415
 30
0.0
 11
7.617180824279785
 21
6.390126943588256
 31
0.0
  0
LINE
  5
1DC
330
CE
100
AcDbEntity
  8
Default
 48
0.5
370
    15
100
AcDbLine
 10
7.617180824279785
 20
6.390126943588256
 30
0.0
 11
7.617093086242675
 21
6.390120029449462
 31
0.0
  0
LINE
  5
1DD
330
CE
100
AcDbEntity
  8
Default
 48
0.5
370
    15
100
AcDbLine
 10
7.617093086242675
 20
6.390120029449462
 30
0.0
 11
5.262588024139404
 21
6.188482999801635
 31
0.0
  0
LINE
  5
1DE
330
CE
100
AcDbEntity
  8
Default
 48
0.5
370
    15
100
AcDbLine
 10
5.262588024139404
 20
6.188482999801635
 30
0.0
 11
5.262572765350341
 21
6.188544988632202
 31
0.0
  0
LINE
  5
1DF
330
CE
100
AcDbEntity
  8
0
 60
     1
100
AcDbLine
 10
5.262572765350341
 20
6.188544988632202
 30
0.0
 11
7.617877960205078
 21
6.387686014175415
 31
0.0
  0
LINE
  5
1E0
330
CE
100
AcDbEntity
  8
Default
 48
0.5
370
    15
100
AcDbLine
 10
5.263257026672363
 20
6.185728073120117
 30
0.0
 11
5.262588024139404
 21
6.188482999801635
 31
0.0
  0
LINE
  5
1E1
330
CE
100
AcDbEntity
  8
0
 60
     1
100
AcDbLine
 10
5.262588024139404
 20
6.188482999801635
 30
0.0
 11
5.263257026672363
 21
6.185728073120117
 31
0.0
  0
LINE
  5
1E2
330
CE
100
AcDbEntity
  8
Default
 48
0.5
370
    15
100
AcDbLine
 10
5.262572765350341
 20
6.188544988632202
 30
0.0
 11
3.072968959808349
 21
6.001036882400512
 31
0.0
  0
LINE
  5
1E3
330
CE
100
AcDbEntity
  8
Default
 48
0.5
370
    15
100
AcDbLine
 10
3.072968959808349
 20
6.001036882400512
 30
0.0
 11
3.032725095748901
 21
5.702850103378295
 31
0.0
  0
LINE
  5
1E4
330
CE
100
AcDbEntity
  8
Default
 48
0.5
370
    15
100
AcDbLine
 10
3.032725095748901
 20
5.702850103378295
 30
0.0
 11
3.032707929611206
 21
5.702723979949951
 31
0.0
  0
LINE
  5
1E5
330
CE
100
AcDbEntity
  8
Default
 48
0.5
370
    15
100
AcDbLine
 10
3.032707929611206
 20
5.702723979949951
 30
0.0
 11
3.035159111022949
 21
5.69058609008789
 31
0.0
  0
LINE
  5
1E6
330
CE
100
AcDbEntity
  8
Default
 48
0.5
370
    15
100
AcDbLine
 10
3.035159111022949
 20
5.69058609008789
 30
0.0
 11
2.972244977951049
 21
5.228492975234985
 31
0.0
  0
LINE
  5
1E7
330
CE
100
AcDbEntity
  8
0
 60
     1
100
AcDbLine
 10
2.972244977951049
 20
5.228492975234985
 30
0.0
 11
5.262572765350341
 21
6.188544988632202
 31
0.0
  0
LINE
  5
1E8
330
CE
100
AcDbEntity
  8
Default
 48
0.5
370
    15
100
AcDbLine
 10
10.39589977264404
 20
4.023223876953125
 30
0.0
 11
10.40371990203857
 21
4.030424118041992
 31
0.0
  0
LINE
  5
1E9
330
CE
100
AcDbEntity
  8
Default
 48
0.5
370
    15
100
AcDbLine
 10
10.40371990203857
 20
4.030424118041992
 30
0.0
 11
8.72784423828125
 21
3.617361068725585
 31
0.0
  0
LINE
  5
1EA
330
CE
100
AcDbEntity
  8
Default
 48
0.5
370
    15
100
AcDbLine
 10
8.72784423828125
 20
3.617361068725585
 30
0.0
 11
8.721328735351562
 21
3.609993934631347
 31
0.0
  0
LINE
  5
1EB
330
CE
100
AcDbEntity
  8
Default
 48
0.5
370
    15
100
AcDbLine
 10
8.721328735351562
 20
3.609993934631347
 30
0.0
 11
8.721233367919921
 21
3.609971046447753
 31
0.0
  0
LINE
  5
1EC
330
CE
100
AcDbEntity
  8
Default
 48
0.5
370
    15
100
AcDbLine
 10
8.721233367919921
 20
3.609971046447753
 30
0.0
 11
5.86212682723999
 21
2.904345989227294
 31
0.0
  0
LINE
  5
1ED
330
CE
100
AcDbEntity
  8
0
 60
     1
100
AcDbLine
 10
5.86212682723999
 20
2.904345989227294
 30
0.0
 11
10.39589977264404
 21
4.023223876953125
 31
0.0
  0
LINE
  5
1EE
330
CE
100
AcDbEntity
  8
Default
 48
0.5
370
    15
100
AcDbLine
 10
2.921473979949951
 20
4.87877607345581
 30
0.0
 11
2.970113039016723
 21
5.2391939163208
 31
0.0
  0
LINE
  5
1EF
330
CE
100
AcDbEntity
  8
Default
 48
0.5
370
    15
100
AcDbLine
 10
2.970113039016723
 20
5.2391939163208
 30
0.0
 11
3.0326828956604
 21
5.702847003936767
 31
0.0
  0
LINE
  5
1F0
330
CE
100
AcDbEntity
  8
Default
 48
0.5
370
    15
100
AcDbLine
 10
3.0326828956604
 20
5.702847003936767
 30
0.0
 11
3.032725095748901
 21
5.702850103378295
 31
0.0
  0
LINE
  5
1F1
330
CE
100
AcDbEntity
  8
0
 60
     1
100
AcDbLine
 10
3.032725095748901
 20
5.702850103378295
 30
0.0
 11
2.921473979949951
 21
4.87877607345581
 31
0.0
  0
LINE
  5
1F2
330
CE
100
AcDbEntity
  8
Default
 48
0.5
370
    15
100
AcDbLine
 10
3.129717111587524
 20
5.994203090667724
 30
0.0
 11
3.127373933792114
 21
6.002532005310058
 31
0.0
  0
LINE
  5
1F3
330
CE
100
AcDbEntity
  8
Default
 48
0.5
370
    15
100
AcDbLine
 10
3.127373933792114
 20
6.002532005310058
 30
0.0
 11
3.077043056488037
 21
5.99821400642395
 31
0.0
  0
LINE
  5
1F4
330
CE
100
AcDbEntity
  8
Default
 48
0.5
370
    15
100
AcDbLine
 10
3.077043056488037
 20
5.99821400642395
 30
0.0
 11
3.099679946899414
 21
5.821846008300781
 31
0.0
  0
LINE
  5
1F5
330
CE
100
AcDbEntity
  8
Default
 48
0.5
370
    15
100
AcDbLine
 10
3.099679946899414
 20
5.821846008300781
 30
0.0
 11
3.130690097808837
 21
5.709274053573608
 31
0.0
  0
LINE
  5
1F6
330
CE
100
AcDbEntity
  8
Default
 48
0.5
370
    15
100
AcDbLine
 10
3.130690097808837
 20
5.709274053573608
 30
0.0
 11
3.371164083480834
 21
4.836313962936401
 31
0.0
  0
LINE
  5
1F7
330
CE
100
AcDbEntity
  8
Default
 48
0.5
370
    15
100
AcDbLine
 10
3.371164083480834
 20
4.836313962936401
 30
0.0
 11
3.381608009338378
 21
4.798401117324829
 31
0.0
  0
LINE
  5
1F8
330
CE
100
AcDbEntity
  8
0
 60
     1
100
AcDbLine
 10
3.381608009338378
 20
4.798401117324829
 30
0.0
 11
3.129717111587524
 21
5.994203090667724
 31
0.0
  0
LINE
  5
1F9
330
CE
100
AcDbEntity
  8
Default
 48
0.5
370
    15
100
AcDbLine
 10
2.981328010559082
 20
4.78291893005371
 30
0.0
 11
3.371164083480834
 21
4.836313962936401
 31
0.0
  0
LINE
  5
1FA
330
CE
100
AcDbEntity
  8
0
 60
     1
100
AcDbLine
 10
3.371164083480834
 20
4.836313962936401
 30
0.0
 11
2.981328010559082
 21
4.78291893005371
 31
0.0
  0
LINE
  5
1FB
330
CE
100
AcDbEntity
  8
Default
 48
0.5
370
    15
100
AcDbLine
 10
3.907047986984252
 20
6.061157941818237
 30
0.0
 11
3.904309034347534
 21
6.069169998168945
 31
0.0
  0
LINE
  5
1FC
330
CE
100
AcDbEntity
  8
Default
 48
0.5
370
    15
100
AcDbLine
 10
3.904309034347534
 20
6.069169998168945
 30
0.0
 11
3.857263088226318
 21
6.06513500213623
 31
0.0
  0
LINE
  5
1FD
330
CE
100
AcDbEntity
  8
Default
 48
0.5
370
    15
100
AcDbLine
 10
3.857263088226318
 20
6.06513500213623
 30
0.0
 11
3.854490995407104
 21
6.056631088256835
 31
0.0
  0
LINE
  5
1FE
330
CE
100
AcDbEntity
  8
0
 60
     1
100
AcDbLine
 10
3.854490995407104
 20
6.056631088256835
 30
0.0
 11
3.907047986984252
 21
6.061157941818237
 31
0.0
  0
LINE
  5
1FF
330
CE
100
AcDbEntity
  8
Default
 48
0.5
370
    15
100
AcDbLine
 10
4.059937953948974
 20
2.466835021972656
 30
0.0
 11
5.86566686630249
 21
2.911903858184814
 31
0.0
  0
LINE
  5
200
330
CE
100
AcDbEntity
  8
Default
 48
0.5
370
    15
100
AcDbLine
 10
5.86566686630249
 20
2.911903858184814
 30
0.0
 11
5.86212682723999
 21
2.904345989227294
 31
0.0
  0
LINE
  5
201
330
CE
100
AcDbEntity
  8
Default
 48
0.5
370
    15
100
AcDbLine
 10
5.86212682723999
 20
2.904345989227294
 30
0.0
 11
5.862091064453125
 21
2.904272079467773
 31
0.0
  0
LINE
  5
202
330
CE
100
AcDbEntity
  8
Default
 48
0.5
370
    15
100
AcDbLine
 10
5.862091064453125
 20
2.904272079467773
 30
0.0
 11
4.05883502960205
 21
2.459225177764892
 31
0.0
  0
LINE
  5
203
330
CE
100
AcDbEntity
  8
0
 60
     1
100
AcDbLine
 10
4.05883502960205
 20
2.459225177764892
 30
0.0
 11
4.059937953948974
 21
2.466835021972656
 31
0.0
  0
LINE
  5
204
330
CE
100
AcDbEntity
  8
Default
 48
0.5
370
    15
100
AcDbLine
 10
5.938148021697998
 20
6.23605990409851
 30
0.0
 11
5.934506893157958
 21
6.243300914764404
 31
0.0
  0
LINE
  5
205
330
CE
100
AcDbEntity
  8
Default
 48
0.5
370
    15
100
AcDbLine
 10
5.934506893157958
 20
6.243300914764404
 30
0.0
 11
5.895523071289062
 21
6.239958047866821
 31
0.0
  0
LINE
  5
206
330
CE
100
AcDbEntity
  8
Default
 48
0.5
370
    15
100
AcDbLine
 10
5.895523071289062
 20
6.239958047866821
 30
0.0
 11
5.895600795745849
 21
6.232394933700561
 31
0.0
  0
LINE
  5
207
330
CE
100
AcDbEntity
  8
0
 60
     1
100
AcDbLine
 10
5.895600795745849
 20
6.232394933700561
 30
0.0
 11
5.938148021697998
 21
6.23605990409851
 31
0.0
  0
LINE
  5
208
330
CE
100
AcDbEntity
  8
Default
 48
0.5
370
    15
100
AcDbLine
 10
5.889076232910156
 20
6.231832981109619
 30
0.0
 11
5.895523071289062
 21
6.239958047866821
 31
0.0
  0
LINE
  5
209
330
CE
100
AcDbEntity
  8
0
 60
     1
100
AcDbLine
 10
5.895523071289062
 20
6.239958047866821
 30
0.0
 11
5.889076232910156
 21
6.231832981109619
 31
0.0
  0
LINE
  5
20A
330
CE
100
AcDbEntity
  8
Default
 48
0.5
370
    15
100
AcDbLine
 10
7.261820793151855
 20
5.940721035003662
 30
0.0
 11
7.262485027313232
 21
5.939598083496093
 31
0.0
  0
LINE
  5
20B
330
CE
100
AcDbEntity
  8
Default
 48
0.5
370
    15
100
AcDbLine
 10
7.262485027313232
 20
5.939598083496093
 30
0.0
 11
7.707223892211914
 21
5.186557054519653
 31
0.0
  0
LINE
  5
20C
330
CE
100
AcDbEntity
  8
Default
 48
0.5
370
    15
100
AcDbLine
 10
7.707223892211914
 20
5.186557054519653
 30
0.0
 11
7.706533908843994
 21
5.185348033905029
 31
0.0
  0
LINE
  5
20D
330
CE
100
AcDbEntity
  8
Default
 48
0.5
370
    15
100
AcDbLine
 10
7.706533908843994
 20
5.185348033905029
 30
0.0
 11
7.558084964752197
 21
5.163088083267211
 31
0.0
  0
LINE
  5
20E
330
CE
100
AcDbEntity
  8
Default
 48
0.5
370
    15
100
AcDbLine
 10
7.558084964752197
 20
5.163088083267211
 30
0.0
 11
7.5568208694458
 21
5.162899017333984
 31
0.0
  0
LINE
  5
20F
330
CE
100
AcDbEntity
  8
0
 60
     1
100
AcDbLine
 10
7.5568208694458
 20
5.162899017333984
 30
0.0
 11
7.261820793151855
 21
5.940721035003662
 31
0.0
  0
LINE
  5
210
330
CE
100
AcDbEntity
  8
Default
 48
0.5
370
    15
100
AcDbLine
 10
5.475552082061767
 20
5.748964071273803
 30
0.0
 11
5.365899085998535
 21
5.627301931381225
 31
0.0
  0
LINE
  5
211
330
CE
100
AcDbEntity
  8
Default
 48
0.5
370
    15
100
AcDbLine
 10
5.365899085998535
 20
5.627301931381225
 30
0.0
 11
5.333794116973876
 21
5.59168004989624
 31
0.0
  0
LINE
  5
212
330
CE
100
AcDbEntity
  8
Default
 48
0.5
370
    15
100
AcDbLine
 10
5.333794116973876
 20
5.59168004989624
 30
0.0
 11
5.19888687133789
 21
5.467135906219482
 31
0.0
  0
LINE
  5
213
330
CE
100
AcDbEntity
  8
Default
 48
0.5
370
    15
100
AcDbLine
 10
5.19888687133789
 20
5.467135906219482
 30
0.0
 11
5.07857322692871
 21
5.328022956848144
 31
0.0
  0
LINE
  5
214
330
CE
100
AcDbEntity
  8
Default
 48
0.5
370
    15
100
AcDbLine
 10
5.07857322692871
 20
5.328022956848144
 30
0.0
 11
5.018379211425781
 21
5.266623020172119
 31
0.0
  0
LINE
  5
215
330
CE
100
AcDbEntity
  8
Default
 48
0.5
370
    15
100
AcDbLine
 10
5.018379211425781
 20
5.266623020172119
 30
0.0
 11
4.953198909759521
 21
5.225397109985351
 31
0.0
  0
LINE
  5
216
330
CE
100
AcDbEntity
  8
Default
 48
0.5
370
    15
100
AcDbLine
 10
4.953198909759521
 20
5.225397109985351
 30
0.0
 11
4.581781864166259
 21
5.149271011352539
 31
0.0
  0
LINE
  5
217
330
CE
100
AcDbEntity
  8
Default
 48
0.5
370
    15
100
AcDbLine
 10
4.581781864166259
 20
5.149271011352539
 30
0.0
 11
4.497460842132568
 21
5.13943600654602
 31
0.0
  0
LINE
  5
218
330
CE
100
AcDbEntity
  8
Default
 48
0.5
370
    15
100
AcDbLine
 10
4.497460842132568
 20
5.13943600654602
 30
0.0
 11
4.432888984680175
 21
5.116421937942504
 31
0.0
  0
LINE
  5
219
330
CE
100
AcDbEntity
  8
Default
 48
0.5
370
    15
100
AcDbLine
 10
4.432888984680175
 20
5.116421937942504
 30
0.0
 11
4.378220081329345
 21
5.08311104774475
 31
0.0
  0
LINE
  5
21A
330
CE
100
AcDbEntity
  8
Default
 48
0.5
370
    15
100
AcDbLine
 10
4.378220081329345
 20
5.08311104774475
 30
0.0
 11
4.294364929199218
 21
5.05215311050415
 31
0.0
  0
LINE
  5
21B
330
CE
100
AcDbEntity
  8
Default
 48
0.5
370
    15
100
AcDbLine
 10
4.294364929199218
 20
5.05215311050415
 30
0.0
 11
4.128284931182861
 21
5.013767957687377
 31
0.0
  0
LINE
  5
21C
330
CE
100
AcDbEntity
  8
Default
 48
0.5
370
    15
100
AcDbLine
 10
4.128284931182861
 20
5.013767957687377
 30
0.0
 11
4.02458381652832
 21
4.973844051361083
 31
0.0
  0
LINE
  5
21D
330
CE
100
AcDbEntity
  8
Default
 48
0.5
370
    15
100
AcDbLine
 10
4.02458381652832
 20
4.973844051361083
 30
0.0
 11
3.967425107955932
 21
4.934088945388793
 31
0.0
  0
LINE
  5
21E
330
CE
100
AcDbEntity
  8
Default
 48
0.5
370
    15
100
AcDbLine
 10
3.967425107955932
 20
4.934088945388793
 30
0.0
 11
3.934921026229858
 21
4.88374900817871
 31
0.0
  0
LINE
  5
21F
330
CE
100
AcDbEntity
  8
Default
 48
0.5
370
    15
100
AcDbLine
 10
3.934921026229858
 20
4.88374900817871
 30
0.0
 11
3.921947002410888
 21
4.832765102386474
 31
0.0
  0
LINE
  5
220
330
CE
100
AcDbEntity
  8
Default
 48
0.5
370
    15
100
AcDbLine
 10
3.921947002410888
 20
4.832765102386474
 30
0.0
 11
3.886909008026123
 21
4.775906085968017
 31
0.0
  0
LINE
  5
221
330
CE
100
AcDbEntity
  8
Default
 48
0.5
370
    15
100
AcDbLine
 10
3.886909008026123
 20
4.775906085968017
 30
0.0
 11
3.83881402015686
 21
4.750298023223876
 31
0.0
  0
LINE
  5
222
330
CE
100
AcDbEntity
  8
Default
 48
0.5
370
    15
100
AcDbLine
 10
3.83881402015686
 20
4.750298023223876
 30
0.0
 11
3.76478099822998
 21
4.714068889617919
 31
0.0
  0
LINE
  5
223
330
CE
100
AcDbEntity
  8
Default
 48
0.5
370
    15
100
AcDbLine
 10
3.76478099822998
 20
4.714068889617919
 30
0.0
 11
3.764700889587402
 21
4.712709903717041
 31
0.0
  0
LINE
  5
224
330
CE
100
AcDbEntity
  8
Default
 48
0.5
370
    15
100
AcDbLine
 10
3.764700889587402
 20
4.712709903717041
 30
0.0
 11
3.765664100646972
 21
4.708558082580566
 31
0.0
  0
LINE
  5
225
330
CE
100
AcDbEntity
  8
Default
 48
0.5
370
    15
100
AcDbLine
 10
3.765664100646972
 20
4.708558082580566
 30
0.0
 11
3.76906394958496
 21
4.693908929824829
 31
0.0
  0
LINE
  5
226
330
CE
100
AcDbEntity
  8
0
 60
     1
100
AcDbLine
 10
3.76906394958496
 20
4.693908929824829
 30
0.0
 11
5.475552082061767
 21
5.748964071273803
 31
0.0
  0
LINE
  5
227
330
CE
100
AcDbEntity
  8
Default
 48
0.5
370
    15
100
AcDbLine
 10
5.475552082061767
 20
5.748964071273803
 30
0.0
 11
7.261820793151855
 21
5.940721035003662
 31
0.0
  0
LINE
  5
228
330
CE
100
AcDbEntity
  8
0
 60
     1
100
AcDbLine
 10
7.261820793151855
 20
5.940721035003662
 30
0.0
 11
5.475552082061767
 21
5.748964071273803
 31
0.0
  0
LINE
  5
229
330
CE
100
AcDbEntity
  8
Default
 48
0.5
370
    15
100
AcDbLine
 10
7.5568208694458
 20
5.162899017333984
 30
0.0
 11
3.725908041000366
 21
4.588449001312255
 31
0.0
  0
LINE
  5
22A
330
CE
100
AcDbEntity
  8
Default
 48
0.5
370
    15
100
AcDbLine
 10
3.725908041000366
 20
4.588449001312255
 30
0.0
 11
3.725980997085571
 21
4.589799880981445
 31
0.0
  0
LINE
  5
22B
330
CE
100
AcDbEntity
  8
Default
 48
0.5
370
    15
100
AcDbLine
 10
3.725980997085571
 20
4.589799880981445
 30
0.0
 11
3.734683990478515
 21
4.607871055603027
 31
0.0
  0
LINE
  5
22C
330
CE
100
AcDbEntity
  8
Default
 48
0.5
370
    15
100
AcDbLine
 10
3.734683990478515
 20
4.607871055603027
 30
0.0
 11
3.743376016616821
 21
4.620532989501953
 31
0.0
  0
LINE
  5
22D
330
CE
100
AcDbEntity
  8
Default
 48
0.5
370
    15
100
AcDbLine
 10
3.743376016616821
 20
4.620532989501953
 30
0.0
 11
3.756962060928344
 21
4.633493900299072
 31
0.0
  0
LINE
  5
22E
330
CE
100
AcDbEntity
  8
Default
 48
0.5
370
    15
100
AcDbLine
 10
3.756962060928344
 20
4.633493900299072
 30
0.0
 11
3.759871006011962
 21
4.646863937377929
 31
0.0
  0
LINE
  5
22F
330
CE
100
AcDbEntity
  8
Default
 48
0.5
370
    15
100
AcDbLine
 10
3.759871006011962
 20
4.646863937377929
 30
0.0
 11
3.767688989639282
 21
4.680699110031127
 31
0.0
  0
LINE
  5
230
330
CE
100
AcDbEntity
  8
Default
 48
0.5
370
    15
100
AcDbLine
 10
3.767688989639282
 20
4.680699110031127
 30
0.0
 11
3.76906394958496
 21
4.693908929824829
 31
0.0
  0
LINE
  5
231
330
CE
100
AcDbEntity
  8
Default
 48
0.5
370
    15
100
AcDbLine
 10
3.76906394958496
 20
4.693908929824829
 30
0.0
 11
3.769186973571777
 21
4.695086002349853
 31
0.0
  0
LINE
  5
232
330
CE
100
AcDbEntity
  8
0
 60
     1
100
AcDbLine
 10
3.769186973571777
 20
4.695086002349853
 30
0.0
 11
7.5568208694458
 21
5.162899017333984
 31
0.0
  0
LINE
  5
233
330
CE
100
AcDbEntity
  8
Default
 48
0.5
370
    15
100
AcDbLine
 10
4.059937953948974
 20
2.466835021972656
 30
0.0
 11
3.718543052673339
 21
3.697103977203369
 31
0.0
  0
LINE
  5
234
330
CE
100
AcDbEntity
  8
Default
 48
0.5
370
    15
100
AcDbLine
 10
3.718543052673339
 20
3.697103977203369
 30
0.0
 11
3.718620061874389
 21
3.698363780975341
 31
0.0
  0
LINE
  5
235
330
CE
100
AcDbEntity
  8
Default
 48
0.5
370
    15
100
AcDbLine
 10
3.718620061874389
 20
3.698363780975341
 30
0.0
 11
3.719024896621704
 21
3.69844102859497
 31
0.0
  0
LINE
  5
236
330
CE
100
AcDbEntity
  8
Default
 48
0.5
370
    15
100
AcDbLine
 10
3.719024896621704
 20
3.69844102859497
 30
0.0
 11
3.75080394744873
 21
3.583942890167236
 31
0.0
  0
LINE
  5
237
330
CE
100
AcDbEntity
  8
Default
 48
0.5
370
    15
100
AcDbLine
 10
3.75080394744873
 20
3.583942890167236
 30
0.0
 11
8.885778427124023
 21
4.580931901931762
 31
0.0
  0
LINE
  5
238
330
CE
100
AcDbEntity
  8
Default
 48
0.5
370
    15
100
AcDbLine
 10
8.885778427124023
 20
4.580931901931762
 30
0.0
 11
8.887210845947265
 21
4.581209897994995
 31
0.0
  0
LINE
  5
239
330
CE
100
AcDbEntity
  8
0
 60
     1
100
AcDbLine
 10
8.887210845947265
 20
4.581209897994995
 30
0.0
 11
4.059937953948974
 21
2.466835021972656
 31
0.0
  0
LINE
  5
23A
330
CE
100
AcDbEntity
  8
Default
 48
0.5
370
    15
100
AcDbLine
 10
10.40371990203857
 20
4.030424118041992
 30
0.0
 11
10.40484046936035
 21
4.031452178955078
 31
0.0
  0
LINE
  5
23B
330
CE
100
AcDbEntity
  8
Default
 48
0.5
370
    15
100
AcDbLine
 10
10.40484046936035
 20
4.031452178955078
 30
0.0
 11
9.870008468627929
 21
4.771126985549926
 31
0.0
  0
LINE
  5
23C
330
CE
100
AcDbEntity
  8
Default
 48
0.5
370
    15
100
AcDbLine
 10
9.870008468627929
 20
4.771126985549926
 30
0.0
 11
9.87099266052246
 21
4.772217988967895
 31
0.0
  0
LINE
  5
23D
330
CE
100
AcDbEntity
  8
Default
 48
0.5
370
    15
100
AcDbLine
 10
9.87099266052246
 20
4.772217988967895
 30
0.0
 11
9.390357017517089
 21
5.436831951141357
 31
0.0
  0
LINE
  5
23E
330
CE
100
AcDbEntity
  8
0
 60
     1
100
AcDbLine
 10
9.390357017517089
 20
5.436831951141357
 30
0.0
 11
10.40371990203857
 21
4.030424118041992
 31
0.0
  0
LINE
  5
23F
330
CE
100
AcDbEntity
  8
Default
 48
0.5
370
    15
100
AcDbLine
 10
3.765664100646972
 20
4.708558082580566
 30
0.0
 11
3.451695919036865
 21
4.663050889968872
 31
0.0
  0
LINE
  5
240
330
CE
100
AcDbEntity
  8
Default
 48
0.5
370
    15
100
AcDbLine
 10
3.451695919036865
 20
4.663050889968872
 30
0.0
 11
3.451674938201904
 21
4.661683082580566
 31
0.0
  0
LINE
  5
241
330
CE
100
AcDbEntity
  8
Default
 48
0.5
370
    15
100
AcDbLine
 10
3.451674938201904
 20
4.661683082580566
 30
0.0
 11
3.616538047790527
 21
4.067696094512939
 31
0.0
  0
LINE
  5
242
330
CE
100
AcDbEntity
  8
Default
 48
0.5
370
    15
100
AcDbLine
 10
3.616538047790527
 20
4.067696094512939
 30
0.0
 11
3.719024896621704
 21
3.69844102859497
 31
0.0
  0
LINE
  5
243
330
CE
100
AcDbEntity
  8
0
 60
     1
100
AcDbLine
 10
3.719024896621704
 20
3.69844102859497
 30
0.0
 11
3.765664100646972
 21
4.708558082580566
 31
0.0
  0
LINE
  5
244
330
CE
100
AcDbEntity
  8
Default
 48
0.5
370
    15
100
AcDbLine
 10
8.887210845947265
 20
4.581209897994995
 30
0.0
 11
9.025603294372558
 21
4.60807991027832
 31
0.0
  0
LINE
  5
245
330
CE
100
AcDbEntity
  8
Default
 48
0.5
370
    15
100
AcDbLine
 10
9.025603294372558
 20
4.60807991027832
 30
0.0
 11
9.026503562927246
 21
4.609200000762939
 31
0.0
  0
LINE
  5
246
330
CE
100
AcDbEntity
  8
Default
 48
0.5
370
    15
100
AcDbLine
 10
9.026503562927246
 20
4.609200000762939
 30
0.0
 11
8.563899993896484
 21
5.312855958938598
 31
0.0
  0
LINE
  5
247
330
CE
100
AcDbEntity
  8
Default
 48
0.5
370
    15
100
AcDbLine
 10
8.563899993896484
 20
5.312855958938598
 30
0.0
 11
9.390357017517089
 21
5.436831951141357
 31
0.0
  0
LINE
  5
248
330
CE
100
AcDbEntity
  8
Default
 48
0.5
370
    15
100
AcDbLine
 10
9.390357017517089
 20
5.436831951141357
 30
0.0
 11
9.391883850097656
 21
5.43706202507019
 31
0.0
  0
LINE
  5
249
330
CE
100
AcDbEntity
  8
0
 60
     1
100
AcDbLine
 10
9.391883850097656
 20
5.43706202507019
 30
0.0
 11
8.887210845947265
 21
4.581209897994995
 31
0.0
  0
LINE
  5
24A
330
CE
100
AcDbEntity
  8
Default
 48
0.5
370
    15
100
AcDbLine
 10
9.391883850097656
 20
5.43706202507019
 30
0.0
 11
9.392753601074218
 21
5.438199043273925
 31
0.0
  0
LINE
  5
24B
330
CE
100
AcDbEntity
  8
Default
 48
0.5
370
    15
100
AcDbLine
 10
9.392753601074218
 20
5.438199043273925
 30
0.0
 11
8.90258502960205
 21
6.115766048431396
 31
0.0
  0
LINE
  5
24C
330
CE
100
AcDbEntity
  8
Default
 48
0.5
370
    15
100
AcDbLine
 10
8.90258502960205
 20
6.115766048431396
 30
0.0
 11
8.895238876342773
 21
6.114975929260253
 31
0.0
  0
LINE
  5
24D
330
CE
100
AcDbEntity
  8
Default
 48
0.5
370
    15
100
AcDbLine
 10
8.895238876342773
 20
6.114975929260253
 30
0.0
 11
7.336427211761474
 21
5.947540998458862
 31
0.0
  0
LINE
  5
24E
330
CE
100
AcDbEntity
  8
Default
 48
0.5
370
    15
100
AcDbLine
 10
7.336427211761474
 20
5.947540998458862
 30
0.0
 11
7.336419105529785
 21
5.947540044784545
 31
0.0
  0
LINE
  5
24F
330
CE
100
AcDbEntity
  8
0
 60
     1
100
AcDbLine
 10
7.336419105529785
 20
5.947540044784545
 30
0.0
 11
9.391883850097656
 21
5.43706202507019
 31
0.0
  0
LINE
  5
250
330
CE
100
AcDbEntity
  8
Default
 48
0.5
370
    15
100
AcDbLine
 10
2.942130088806152
 20
4.759941101074218
 30
0.0
 11
2.928126096725463
 21
4.859033107757568
 31
0.0
  0
LINE
  5
251
330
CE
100
AcDbEntity
  8
Default
 48
0.5
370
    15
100
AcDbLine
 10
2.928126096725463
 20
4.859033107757568
 30
0.0
 11
2.92664098739624
 21
4.869539022445678
 31
0.0
  0
LINE
  5
252
330
CE
100
AcDbEntity
  8
0
 60
     1
100
AcDbLine
 10
2.92664098739624
 20
4.869539022445678
 30
0.0
 11
2.942130088806152
 21
4.759941101074218
 31
0.0
  0
LINE
  5
253
330
CE
100
AcDbEntity
  8
Default
 48
0.5
370
    15
100
AcDbLine
 10
4.815255165100097
 20
5.565335035324096
 30
0.0
 11
4.595530986785888
 21
6.120410919189453
 31
0.0
  0
LINE
  5
254
330
CE
100
AcDbEntity
  8
Default
 48
0.5
370
    15
100
AcDbLine
 10
4.595530986785888
 20
6.120410919189453
 30
0.0
 11
4.59551191329956
 21
6.120459079742431
 31
0.0
  0
LINE
  5
255
330
CE
100
AcDbEntity
  8
Default
 48
0.5
370
    15
100
AcDbLine
 10
4.59551191329956
 20
6.120459079742431
 30
0.0
 11
4.568250179290771
 21
6.118109941482543
 31
0.0
  0
LINE
  5
256
330
CE
100
AcDbEntity
  8
0
 60
     1
100
AcDbLine
 10
4.568250179290771
 20
6.118109941482543
 30
0.0
 11
4.815255165100097
 21
5.565335035324096
 31
0.0
  0
LINE
  5
257
330
CE
100
AcDbEntity
  8
Default
 48
0.5
370
    15
100
AcDbLine
 10
2.970113039016723
 20
5.2391939163208
 30
0.0
 11
2.972244977951049
 21
5.228492975234985
 31
0.0
  0
LINE
  5
258
330
CE
100
AcDbEntity
  8
Default
 48
0.5
370
    15
100
AcDbLine
 10
2.972244977951049
 20
5.228492975234985
 30
0.0
 11
2.92497706413269
 21
4.881318092346191
 31
0.0
  0
LINE
  5
259
330
CE
100
AcDbEntity
  8
Default
 48
0.5
370
    15
100
AcDbLine
 10
2.92497706413269
 20
4.881318092346191
 30
0.0
 11
2.925009965896606
 21
4.881083011627197
 31
0.0
  0
LINE
  5
25A
330
CE
100
AcDbEntity
  8
0
 60
     1
100
AcDbLine
 10
2.925009965896606
 20
4.881083011627197
 30
0.0
 11
2.970113039016723
 21
5.2391939163208
 31
0.0
  0
LINE
  5
25B
330
CE
100
AcDbEntity
  8
Default
 48
0.5
370
    15
100
AcDbLine
 10
2.978429079055786
 20
4.764940023422241
 30
0.0
 11
2.981328010559082
 21
4.78291893005371
 31
0.0
  0
LINE
  5
25C
330
CE
100
AcDbEntity
  8
Default
 48
0.5
370
    15
100
AcDbLine
 10
2.981328010559082
 20
4.78291893005371
 30
0.0
 11
3.130690097808837
 21
5.709274053573608
 31
0.0
  0
LINE
  5
25D
330
CE
100
AcDbEntity
  8
0
 60
     1
100
AcDbLine
 10
3.130690097808837
 20
5.709274053573608
 30
0.0
 11
2.978429079055786
 21
4.764940023422241
 31
0.0
  0
LINE
  5
25E
330
CE
100
AcDbEntity
  8
Default
 48
0.5
370
    15
100
AcDbLine
 10
7.262485027313232
 20
5.939598083496093
 30
0.0
 11
7.336419105529785
 21
5.947540044784545
 31
0.0
  0
LINE
  5
25F
330
CE
100
AcDbEntity
  8
0
 60
     1
100
AcDbLine
 10
7.336419105529785
 20
5.947540044784545
 30
0.0
 11
7.262485027313232
 21
5.939598083496093
 31
0.0
  0
LINE
  5
260
330
CE
100
AcDbEntity
  8
Default
 48
0.5
370
    15
100
AcDbLine
 10
4.040487766265869
 20
2.525361061096191
 30
0.0
 11
4.049757003784179
 21
2.491950035095214
 31
0.0
  0
LINE
  5
261
330
CE
100
AcDbEntity
  8
Default
 48
0.5
370
    15
100
AcDbLine
 10
4.049757003784179
 20
2.491950035095214
 30
0.0
 11
4.05883502960205
 21
2.459225177764892
 31
0.0
  0
LINE
  5
262
330
CE
100
AcDbEntity
  8
0
 60
     1
100
AcDbLine
 10
4.05883502960205
 20
2.459225177764892
 30
0.0
 11
4.040487766265869
 21
2.525361061096191
 31
0.0
  0
LINE
  5
263
330
CE
100
AcDbEntity
  8
Default
 48
0.5
370
    15
100
AcDbLine
 10
3.077043056488037
 20
5.99821400642395
 30
0.0
 11
3.07564091682434
 21
5.987919092178344
 31
0.0
  0
LINE
  5
264
330
CE
100
AcDbEntity
  8
Default
 48
0.5
370
    15
100
AcDbLine
 10
3.07564091682434
 20
5.987919092178344
 30
0.0
 11
3.035159111022949
 21
5.69058609008789
 31
0.0
  0
LINE
  5
265
330
CE
100
AcDbEntity
  8
0
 60
     1
100
AcDbLine
 10
3.035159111022949
 20
5.69058609008789
 30
0.0
 11
3.077043056488037
 21
5.99821400642395
 31
0.0
  0
LINE
  5
266
330
CE
100
AcDbEntity
  8
Default
 48
0.5
370
    15
100
AcDbLine
 10
7.104142189025878
 20
6.336494922637939
 30
0.0
 11
7.078132152557373
 21
6.33425498008728
 31
0.0
  0
LINE
  5
267
330
CE
100
AcDbEntity
  8
0
 60
     1
100
AcDbLine
 10
7.078132152557373
 20
6.33425498008728
 30
0.0
 11
7.104142189025878
 21
6.336494922637939
 31
0.0
  0
LINE
  5
268
330
CE
100
AcDbEntity
  8
Default
 48
0.5
370
    15
100
AcDbLine
 10
8.11423110961914
 20
6.42354393005371
 30
0.0
 11
8.109369277954101
 21
6.423125028610229
 31
0.0
  0
LINE
  5
269
330
CE
100
AcDbEntity
  8
Default
 48
0.5
370
    15
100
AcDbLine
 10
8.109369277954101
 20
6.423125028610229
 30
0.0
 11
8.10042667388916
 21
6.422354936599731
 31
0.0
  0
LINE
  5
26A
330
CE
100
AcDbEntity
  8
Default
 48
0.5
370
    15
100
AcDbLine
 10
8.10042667388916
 20
6.422354936599731
 30
0.0
 11
7.651319026947021
 21
6.383671045303344
 31
0.0
  0
LINE
  5
26B
330
CE
100
AcDbEntity
  8
0
 60
     1
100
AcDbLine
 10
7.651319026947021
 20
6.383671045303344
 30
0.0
 11
8.11423110961914
 21
6.42354393005371
 31
0.0
  0
LINE
  5
26C
330
CE
100
AcDbEntity
  8
Default
 48
0.5
370
    15
100
AcDbLine
 10
7.073815822601318
 20
6.333883047103881
 30
0.0
 11
7.065879821777343
 21
6.333199977874755
 31
0.0
  0
LINE
  5
26D
330
CE
100
AcDbEntity
  8
Default
 48
0.5
370
    15
100
AcDbLine
 10
7.065879821777343
 20
6.333199977874755
 30
0.0
 11
6.542698860168457
 21
6.288134098052978
 31
0.0
  0
LINE
  5
26E
330
CE
100
AcDbEntity
  8
0
 60
     1
100
AcDbLine
 10
6.542698860168457
 20
6.288134098052978
 30
0.0
 11
7.073815822601318
 21
6.333883047103881
 31
0.0
  0
LINE
  5
26F
330
CE
100
AcDbEntity
  8
Default
 48
0.5
370
    15
100
AcDbLine
 10
8.628894805908203
 20
6.467875003814697
 30
0.0
 11
8.599417686462402
 21
6.465334892272949
 31
0.0
  0
LINE
  5
270
330
CE
100
AcDbEntity
  8
Default
 48
0.5
370
    15
100
AcDbLine
 10
8.599417686462402
 20
6.465334892272949
 30
0.0
 11
8.594317436218261
 21
6.464895963668823
 31
0.0
  0
LINE
  5
271
330
CE
100
AcDbEntity
  8
0
 60
     1
100
AcDbLine
 10
8.594317436218261
 20
6.464895963668823
 30
0.0
 11
8.628894805908203
 21
6.467875003814697
 31
0.0
  0
LINE
  5
272
330
CE
100
AcDbEntity
  8
Default
 48
0.5
370
    15
100
AcDbLine
 10
4.479646205902099
 20
2.563082218170166
 30
0.0
 11
4.479736804962158
 21
2.562918186187744
 31
0.0
  0
LINE
  5
273
330
CE
100
AcDbEntity
  8
0
 60
     1
100
AcDbLine
 10
4.479736804962158
 20
2.562918186187744
 30
0.0
 11
4.479646205902099
 21
2.563082218170166
 31
0.0
  0
TEXT
  5
275
330
CE
100
AcDbEntity
  8
Default
100
AcDbText
 10
7.963373184204101
 20
5.530529908835887
 30
0.0
 40
0.0666666701436043
  1
 
  7
Montserrat
 11
7.963373184204101
 21
5.597196578979492
 31
0.0
100
AcDbText
 73
     3
  0
TEXT
  5
276
330
CE
100
AcDbEntity
  8
Default
100
AcDbText
 10
7.111907958984375
 20
6.054857186973094
 30
0.0
 40
0.0666666701436043
  1
 
  7
Montserrat
 11
7.111907958984375
 21
6.121523857116699
 31
0.0
100
AcDbText
 73
     3
  0
TEXT
  5
277
330
CE
100
AcDbEntity
  8
Default
100
AcDbText
 10
3.266247987747192
 20
4.593768291175365
 30
0.0
 40
0.0666666701436043
  1
 
  7
Montserrat
 11
3.266247987747192
 21
4.660434961318969
 31
0.0
100
AcDbText
 73
     3
  0
ENDBLK
  5
279
330
CE
100
AcDbEntity
  8
0
100
AcDbBlockEnd
  0
BLOCK
  5
280
330
27E
100
AcDbEntity
  8
0
100
AcDbBlockBegin
  2
ANNO_0
 70
     0
 10
0.0
 20
0.0
 30
0.0
  3
ANNO_0
  1

  0
MTEXT
  5
27F
330
27E
100
AcDbEntity
  8
Default
100
AcDbMText
 10
0.4999995231628418
 20
5.00789737701416
 30
0.0
 40
0.1
 41
2.130360126495361
 46
1.315839529037475
 71
     7
 72
     1
  3
\fMontserrat|b0|i0|p0;\H0.666667x;\lROOF SHEATHING 15/32" MIN ; \P\fMontserrat|b0|i0|p0;\H1.000000x;\lREFER TO FORTIFIED STANDARD \P\fMontserrat|b0|i0|p0;\H1.000000x;\lDETAILS F-RS-1, F-RS-2, AND F-RS-3. \P\fMontserrat|b0|i0|p0;\H1.000000x;\lAPPLY MA
  1
NUFACTURER-SPECIFIED \P\fMontserrat|b0|i0|p0;\H1.000000x;\lCOMPATIBLE PRIMER TO ROOF \P\fMontserrat|b0|i0|p0;\H1.000000x;\lSHEATHING PER MANUFACTURER \P\fMontserrat|b0|i0|p0;\H1.000000x;\lINSTALLATION INSTRUCTIONS.\P
  7
Montserrat
 73
     1
 44
1.0
  0
ENDBLK
  5
281
330
27E
100
AcDbEntity
  8
0
100
AcDbBlockEnd
  0
BLOCK
  5
286
330
284
100
AcDbEntity
  8
0
100
AcDbBlockBegin
  2
ANNO_1
 70
     0
 10
0.0
 20
0.0
 30
0.0
  3
ANNO_1
  1

  0
MTEXT
  5
285
330
284
100
AcDbEntity
  8
Default
100
AcDbMText
 10
7.231368541717529
 20
8.227552503347396
 30
0.0
 40
0.1
 41
3.601965427398681
 46
0.9145931899547576
 71
     1
 72
     1
  3
\fMontserrat|b0|i0|p0;\H0.666667x;\lASTM D1970 SELF-ADHERING POLYMER-MODIFIED BITUMEN \P\fMontserrat|b0|i0|p0;\H1.000000x;\lMEMBRANE (40 MIL MIN. THICKNESS SBS, APP OR APPROVED \P\fMontserrat|b0|i0|p0;\H1.000000x;\lEQUAL) COMPATIBLE WITH TILE ROOF AS
  1
SEMBLY COVERING \P\fMontserrat|b0|i0|p0;\H1.000000x;\lENTIRE ROOF DECK. REFER TO GENERAL NOTES #3 AND #4.\P
  7
Montserrat
 73
     1
 44
1.0
  0
ENDBLK
  5
287
330
284
100
AcDbEntity
  8
0
100
AcDbBlockEnd
  0
BLOCK
  5
293
330
291
100
AcDbEntity
  8
0
100
AcDbBlockBegin
  2
ANNO_2
 70
     0
 10
0.0
 20
0.0
 30
0.0
  3
ANNO_2
  1

  0
TEXT
  5
292
330
291
100
AcDbEntity
  8
Default
100
AcDbText
 10
6.83333396911621
 20
2.237500123679637
 30
0.0
 40
0.0666666701436043
  1
DRIP EDGE SHALL BE INSTALLED PER F-DE-1
  7
Montserrat
 11
6.83333396911621
 21
2.304166793823242
 31
0.0
100
AcDbText
 73
     3
  0
ENDBLK
  5
294
330
291
100
AcDbEntity
  8
0
100
AcDbBlockEnd
  0
BLOCK
  5
29F
330
29D
100
AcDbEntity
  8
0
100
AcDbBlockBegin
  2
ANNO_3
 70
     0
 10
0.0
 20
0.0
 30
0.0
  3
ANNO_3
  1

  0
TEXT
  5
29E
330
29D
100
AcDbEntity
  8
Default
100
AcDbText
 10
8.139236450195312
 20
6.886458329856395
 30
0.0
 40
0.0666666701436043
  1
 
  7
Montserrat
 11
8.139236450195312
 21
6.953125
 31
0.0
100
AcDbText
 73
     3
  0
ENDBLK
  5
2A0
330
29D
100
AcDbEntity
  8
0
100
AcDbBlockEnd
  0
BLOCK
  5
2A2
330
2A1
100
AcDbEntity
  8
0
100
AcDbBlockBegin
  2
_None
 70
     0
 10
0.0
 20
0.0
 30
0.0
  3
_None
  1

  0
ENDBLK
  5
2A3
330
2A1
100
AcDbEntity
  8
0
100
AcDbBlockEnd
  0
BLOCK
  5
2A8
330
2A6
100
AcDbEntity
  8
0
100
AcDbBlockBegin
  2
ANNO_4
 70
     0
 10
0.0
 20
0.0
 30
0.0
  3
ANNO_4
  1

  0
TEXT
  5
2A7
330
2A6
100
AcDbEntity
  8
Default
100
AcDbText
 10
7.833334922790527
 20
7.516666524112224
 30
0.0
 40
0.0666666701436043
  1
 
  7
Montserrat
 11
7.833334922790527
 21
7.583333194255828
 31
0.0
100
AcDbText
 73
     3
  0
ENDBLK
  5
2A9
330
2A6
100
AcDbEntity
  8
0
100
AcDbBlockEnd
  0
BLOCK
  5
2AE
330
2AC
100
AcDbEntity
  8
0
100
AcDbBlockBegin
  2
ANNO_5
 70
     0
 10
0.0
 20
0.0
 30
0.0
  3
ANNO_5
  1

  0
TEXT
  5
2AD
330
2AC
100
AcDbEntity
  8
Default
100
AcDbText
 10
1.31004524230957
 20
3.952243032554785
 30
0.0
 40
0.0666666701436043
  1
 
  7
Montserrat
 11
1.31004524230957
 21
3.930020809173583
 31
0.0
100
AcDbText
 73
     1
  0
ENDBLK
  5
2AF
330
2AC
100
AcDbEntity
  8
0
100
AcDbBlockEnd
  0
ENDSEC
  0
SECTION
  2
ENTITIES
  0
LINE
  5
31D
330
1F
100
AcDbEntity
  8
Default
 48
0.5
370
    15
100
AcDbLine
 10
3.562414819692961
 20
9.169777821623725
 30
0.0
 11
14.22908211717545
 21
9.169777821623725
 31
0.0
  0
LINE
  5
31E
330
1F
100
AcDbEntity
  8
Default
 48
0.5
370
    15
100
AcDbLine
 10
14.22908211717545
 20
9.169777821623725
 30
0.0
 11
14.22908211717545
 21
1.003110524141234
 31
0.0
  0
LINE
  5
31F
330
1F
100
AcDbEntity
  8
Default
 48
0.5
370
    15
100
AcDbLine
 10
14.22908211717545
 20
1.003110524141234
 30
0.0
 11
3.562414819692961
 21
1.003110524141234
 31
0.0
  0
LINE
  5
320
330
1F
100
AcDbEntity
  8
Default
 48
0.5
370
    15
100
AcDbLine
 10
3.562414819692961
 20
1.003110524141234
 30
0.0
 11
3.562414819692961
 21
9.169777821623725
 31
0.0
  0
LINE
  5
321
330
1F
100
AcDbEntity
  8
Default
 48
0.5
370
    15
100
AcDbLine
 10
3.562414834594122
 20
2.253110524141234
 30
0.0
 11
5.437414894198767
 21
2.253110524141234
 31
0.0
  0
LINE
  5
322
330
1F
100
AcDbEntity
  8
Default
 48
0.5
370
    15
100
AcDbLine
 10
5.437414894198767
 20
2.253110524141234
 30
0.0
 11
5.437414894198767
 21
1.003110524141234
 31
0.0
  0
LINE
  5
323
330
1F
100
AcDbEntity
  8
Default
 48
0.5
370
    15
100
AcDbLine
 10
5.437414894198767
 20
1.003110524141234
 30
0.0
 11
3.562414834594122
 21
1.003110524141234
 31
0.0
  0
LINE
  5
324
330
1F
100
AcDbEntity
  8
Default
 48
0.5
370
    15
100
AcDbLine
 10
3.562414834594122
 20
1.003110524141234
 30
0.0
 11
3.562414834594122
 21
2.253110524141234
 31
0.0
  0
LINE
  5
325
330
1F
100
AcDbEntity
  8
Default
 48
0.5
370
    15
100
AcDbLine
 10
5.437415132617346
 20
2.253110524141234
 30
0.0
 11
7.312415132617346
 21
2.253110524141234
 31
0.0
  0
LINE
  5
326
330
1F
100
AcDbEntity
  8
Default
 48
0.5
370
    15
100
AcDbLine
 10
7.312415132617346
 20
2.253110524141234
 30
0.0
 11
7.312415132617346
 21
1.003110524141234
 31
0.0
  0
LINE
  5
327
330
1F
100
AcDbEntity
  8
Default
 48
0.5
370
    15
100
AcDbLine
 10
7.312415132617346
 20
1.003110524141234
 30
0.0
 11
5.437415132617346
 21
1.003110524141234
 31
0.0
  0
LINE
  5
328
330
1F
100
AcDbEntity
  8
Default
 48
0.5
370
    15
100
AcDbLine
 10
5.437415132617346
 20
1.003110524141234
 30
0.0
 11
5.437415132617346
 21
2.253110524141234
 31
0.0
  0
IMAGE
  5
329
330
1F
100
AcDbEntity
  8
Images
160
               140
310
8C00000001000000840000000600000005000000A0EF4A61D3FF0E40405CF79EBD0CF53F0000000000000000A0EF4A61D3FF0E40405CF71EBD0CFF3F0000000000000000D077A5B0E97F1440405CF71EBD0CFF3F0000000000000000D077A5B0E97F1440405CF79EBD0CF53F0000000000000000A0EF4A61D3FF0E40405CF7
310
9EBD0CF53F0000000000000000
100
AcDbRasterImage
 90
        0
 10
3.874914894198767
 20
1.315610524141234
 30
0.0
 11
0.0010137875101379
 21
0.0
 31
0.0
 12
0.0
 22
0.0010702046629501
 32
0.0
 13
1233.0
 23
584.0
340
B6
 70
    15
280
     0
281
    50
282
    50
283
     0
290
     0
360
32A
 71
     1
 91
        2
 14
-0.5
 24
-0.5
 14
1232.5
 24
583.4999999999999
  0
LINE
  5
32B
330
1F
100
AcDbEntity
  8
Default
 48
0.5
370
    15
100
AcDbLine
 10
14.22907830247818
 20
2.253110524141234
 30
0.0
 11
7.312415132617346
 21
2.253110524141234
 31
0.0
  0
LINE
  5
32C
330
1F
100
AcDbEntity
  8
Default
 48
0.5
370
    15
100
AcDbLine
 10
7.312415132617346
 20
2.253110524141234
 30
0.0
 11
11.81241608629166
 21
2.253110524141234
 31
0.0
  0
LINE
  5
32D
330
1F
100
AcDbEntity
  8
Default
 48
0.5
370
    15
100
AcDbLine
 10
7.312415132617346
 20
2.253110524141234
 30
0.0
 11
11.56213284501969
 21
2.253110524141234
 31
0.0
  0
LINE
  5
32E
330
1F
100
AcDbEntity
  8
Default
 48
0.5
370
    15
100
AcDbLine
 10
11.56213284501969
 20
2.253110524141234
 30
0.0
 11
11.56213284501969
 21
1.003110524141234
 31
0.0
  0
LINE
  5
32F
330
1F
100
AcDbEntity
  8
Default
 48
0.5
370
    15
100
AcDbLine
 10
11.56213284501969
 20
1.003110524141234
 30
0.0
 11
11.56213284501969
 21
1.253110524141234
 31
0.0
  0
LINE
  5
330
330
1F
100
AcDbEntity
  8
Default
 48
0.5
370
    15
100
AcDbLine
 10
11.56213284501969
 20
1.253110524141234
 30
0.0
 11
14.22907830247818
 21
1.253110524141234
 31
0.0
  0
LINE
  5
331
330
1F
100
AcDbEntity
  8
Default
 48
0.5
370
    15
100
AcDbLine
 10
7.312415132617346
 20
2.253110524141234
 30
0.0
 11
8.562415132617346
 21
2.253110524141234
 31
0.0
  0
LINE
  5
332
330
1F
100
AcDbEntity
  8
Default
 48
0.5
370
    15
100
AcDbLine
 10
8.562415132617346
 20
2.253110524141234
 30
0.0
 11
8.562415132617346
 21
2.003111000978393
 31
0.0
  0
LINE
  5
333
330
1F
100
AcDbEntity
  8
Default
 48
0.5
370
    15
100
AcDbLine
 10
8.562415132617346
 20
2.003111000978393
 30
0.0
 11
7.312415132617346
 21
2.003111000978393
 31
0.0
  0
LINE
  5
334
330
1F
100
AcDbEntity
  8
Default
 48
0.5
370
    15
100
AcDbLine
 10
7.312415132617346
 20
2.003111000978393
 30
0.0
 11
7.312415132617346
 21
2.253110524141234
 31
0.0
  0
LINE
  5
335
330
1F
100
AcDbEntity
  8
Default
 48
0.5
370
    15
100
AcDbLine
 10
11.56213189134537
 20
2.253110524141234
 30
0.0
 11
12.62916947374283
 21
2.253110524141234
 31
0.0
  0
LINE
  5
336
330
1F
100
AcDbEntity
  8
Default
 48
0.5
370
    15
100
AcDbLine
 10
12.62916947374283
 20
2.253110524141234
 30
0.0
 11
12.62916947374283
 21
2.003111000978393
 31
0.0
  0
LINE
  5
337
330
1F
100
AcDbEntity
  8
Default
 48
0.5
370
    15
100
AcDbLine
 10
12.62916947374283
 20
2.003111000978393
 30
0.0
 11
11.56213189134537
 21
2.003111000978393
 31
0.0
  0
LINE
  5
338
330
1F
100
AcDbEntity
  8
Default
 48
0.5
370
    15
100
AcDbLine
 10
11.56213189134537
 20
2.003111000978393
 30
0.0
 11
11.56213189134537
 21
2.253110524141234
 31
0.0
  0
TEXT
  5
339
330
1F
100
AcDbEntity
  8
Default
100
AcDbText
 10
7.374915132617346
 20
2.066085379584262
 30
0.0
 40
0.0942919030785561
  1
DESCRIPTION:
  7
RockwellBold
 11
7.374915132617346
 21
2.034361000978393
 31
0.0
100
AcDbText
 73
     1
  0
TEXT
  5
33A
330
1F
100
AcDbEntity
  8
Default
100
AcDbText
 10
11.62463284501969
 20
2.066085379584262
 30
0.0
 40
0.0942919030785561
  1
DRAWING #:
  7
RockwellBold
 11
11.62463284501969
 21
2.034361000978393
 31
0.0
100
AcDbText
 73
     1
  0
TEXT
  5
33B
330
1F
100
AcDbEntity
  8
Default
100
AcDbText
 10
11.60900784501969
 20
1.066084902747104
 30
0.0
 40
0.0942919030785561
  1
DATE:
  7
RockwellBold
 11
11.60900784501969
 21
1.034360524141234
 31
0.0
100
AcDbText
 73
     1
  0
MTEXT
  5
33D
330
1F
100
AcDbEntity
  8
Default
100
AcDbMText
 10
7.867944727038732
 20
1.238157864534301
 30
0.0
 40
0.1
 41
3.428046703338623
 46
1.427082538604736
 71
     7
 72
     1
  1
\fMontserrat|b0|i0|p0;\H0.833333x;\lSTEEP SLOPE SEALED ROOF DECK - SELF-\P\fMontserrat|b0|i0|p0;\H1.000000x;\lADHERED MEMBRANE - CONCRETE AND CLAY \P\fMontserrat|b0|i0|p0;\H1.000000x;\lTILE ROOF COVERS\P
  7
Montserrat
 73
     1
 44
1.0
  0
MTEXT
  5
33E
330
1F
100
AcDbEntity
  8
Default
100
AcDbMText
 10
12.92193175325333
 20
1.495718594514769
 30
0.0
 40
0.1
 41
1.104449272155761
 46
0.851142406463623
 71
     8
 72
     1
  1
\fMontserrat|b0|i0|p0;\H0.833333x;\lF-SRD-6\P\P
  7
Montserrat
 73
     1
 44
1.0
  0
TEXT
  5
33F
330
1F
100
AcDbEntity
  8
Default
100
AcDbText
 10
12.57094099271407
 20
1.062138302746854
 30
0.0
 40
0.0833333358168602
  1
11/01/2020
  7
Montserrat
 72
     1
 11
12.93998862276017
 21
1.034360524141234
 31
0.0
100
AcDbText
 73
     1
  0
MTEXT
  5
340
330
1F
100
AcDbEntity
  8
Default
100
AcDbMText
 10
3.624914834594122
 20
6.9804092607135
 30
0.0
 40
0.1
 41
6.437500774860382
 46
3.634180665016174
 71
     7
 72
     1
  3
\P\fMontserrat|b0|i0|p0;\H0.666667x;\l^I\LGENERAL NOTES:\P\fMontserrat|b0|i0|p0;\H1.000000x;\l1.REFER TO APPLICABLE FORTIFIED HOME STANDARDS FOR ADDITIONAL INFORMATION.\P\fMontserrat|b0|i0|p0;\H1.000000x;\l2.APPLICABLE FOR ROOF PITCH 2:12 OR GREATER.\
  3
P\fMontserrat|b0|i0|p0;\H1.000000x;\l3.REFER TO AND INSTALL IN  ACCORDANCE WITH MANUFACTURER SPECIFICATIONS AND INSTALLATION \P\fMontserrat|b0|i0|p0;\H1.000000x;\lINSTRUCTIONS AND FRSA/TRI FLORIDA HIGH WIND TILE INSTALLATION MANUAL REVISED 5TH EDITIO
  3
N \P\fMontserrat|b0|i0|p0;\H1.000000x;\l(FOR ASCE 7-10) OR 6TH EDITION (FOR ASCE 7-16). REFER TO PRODUCT APPROVAL TO VERIFY \P\fMontserrat|b0|i0|p0;\H1.000000x;\lREQUIRED WIND PRESSURES ARE MET IF APPLICABLE.  \P\fMontserrat|b0|i0|p0;\H1.000000x;\l4.
  3
ADEQUATE ATTIC VENTILATION IS REQUIRED. REFER TO UNDERLAYMENT AND PRIMARY ROOF SYSTEM \P\fMontserrat|b0|i0|p0;\H1.000000x;\lMANUFACTURER'S INSTALLATION INSTRUCTIONS FOR VENTILATION LIMITATIONS. ALSO CHECK WITH \P\fMontserrat|b0|i0|p0;\H1.000000x;\lLO
  3
CAL BUILDING CODES FOR RESTRICTIONS. \P\fMontserrat|b0|i0|p0;\H1.000000x;\l5.FORTIFIED HOME STANDARDS ARE TO BE APPLIED IN CONJUNCTION WITH FEDERAL, STATE, AND \P\fMontserrat|b0|i0|p0;\H1.000000x;\lLOCAL CODES, ORDINANCES AND REGULATIONS IN ADDITION 
  1
TO THE STRUCTURAL DESIGN WHICH IS \P\fMontserrat|b0|i0|p0;\H1.000000x;\lBY OTHERS. IN CASE OF A CONFLICT BETWEEN PROVISIONS, USE WHICHEVER IS MORE STRINGENT. \P\P
  7
Montserrat
 73
     1
 44
1.0
  0
INSERT
  5
341
330
1F
100
AcDbEntity
  8
0
100
AcDbBlockReference
  2
ANNO_0
 10
3.39574814805924
 20
0.8364444932574457
 30
0.0
  0
LEADER
  5
342
330
1F
100
AcDbEntity
  8
Default
 48
0.5
100
AcDbLeader
  3
Standard
 76
     3
 10
6.887788066958776
 20
6.296116467439574
 30
0.0
 10
6.229436168765417
 20
5.920383568727416
 30
0.0
 10
6.029435167407385
 20
5.920383568727416
 30
0.0
212
2.633687019348144
222
5.08393907546997
232
0.0
1001
ACAD
1000
DSTYLE
1002
{
1070
    41
1040
0.1874999925494194
1070
   341
1005
0
1070
   176
1070
   256
1070
   371
1070
    15
1002
}
  0
INSERT
  5
343
330
1F
100
AcDbEntity
  8
0
100
AcDbBlockReference
  2
ANNO_1
 10
3.39574814805924
 20
0.8364444932574457
 30
0.0
  0
LEADER
  5
344
330
1F
100
AcDbEntity
  8
Default
 48
0.5
100
AcDbLeader
  3
Standard
 76
     3
 10
9.803465375995031
 20
6.68422948929016
 30
0.0
 10
10.4202151394838
 20
8.987955298149032
 30
0.0
 10
10.62021494874894
 20
8.987955298149032
 30
0.0
212
7.224466800689697
222
8.151510804891586
232
0.0
1001
ACAD
1000
DSTYLE
1002
{
1070
    41
1040
0.1874999925494194
1070
   341
1005
0
1070
   176
1070
   256
1070
   371
1070
    15
1002
}
  0
MTEXT
  5
345
330
1F
100
AcDbEntity
  8
Default
100
AcDbMText
 10
4.062414834594122
 20
4.09165250869934
 30
0.0
 40
0.1
 41
2.333333313465118
 46
1.127737522125244
 71
     7
 72
     1
  3
\fMontserrat|b0|i0|p0;\H0.666667x;\l4" MIN. SIDELAPS OR GREATER IF \P\fMontserrat|b0|i0|p0;\H1.000000x;\lSPECIFIED BY MANUFACTURER'S  \P\fMontserrat|b0|i0|p0;\H1.000000x;\lSPECIFICATIONS AND INSTALLATION \P\fMontserrat|b0|i0|p0;\H1.000000x;\lINSTRUCT
  1
IONS AND FRSA/TRI MANUAL \P\fMontserrat|b0|i0|p0;\H1.000000x;\l(SEE GENERAL NOTE #3). \P
  7
Montserrat
 73
     1
 44
1.0
  0
LINE
  5
346
330
1F
100
AcDbEntity
  8
Default
  6
DASHED
 48
0.375
370
    15
100
AcDbLine
 10
10.95316220292984
 20
5.998318549119872
 30
0.0
 11
10.51323796281754
 21
6.760468598329467
 31
0.0
  0
LINE
  5
347
330
1F
100
AcDbEntity
  8
Default
  6
DASHED
 48
0.375
370
    15
100
AcDbLine
 10
12.2829589940065
 20
5.41765439125244
 30
0.0
 11
11.76938916215836
 21
6.211822386705321
 31
0.0
  0
MTEXT
  5
348
330
1F
100
AcDbEntity
  8
Default
100
AcDbMText
 10
11.37333298692642
 20
7.783135291063231
 30
0.0
 40
0.1
 41
2.95312213897705
 46
0.8333336114883422
 71
     7
 72
     1
  3
\fMontserrat|b0|i0|p0;\H0.666667x;\lREFER TO MANUFACTURER'S SPECIFICATIONS \P\fMontserrat|b0|i0|p0;\H1.000000x;\lAND FRSA/TRI MANUAL (SEE GENERAL NOTE #3) \P\fMontserrat|b0|i0|p0;\H1.000000x;\lFOR REQUIRED OVERLAP AND FOLLOW \P\fMontserrat|b0|i0|p0;\
  1
H1.000000x;\lINSTALLATION INSTRUCTIONS.\P
  7
Montserrat
 73
     1
 44
1.0
  0
INSERT
  5
349
330
1F
100
AcDbEntity
  8
0
100
AcDbBlockReference
  2
ANNO_2
 10
3.39574814805924
 20
0.8364444932574457
 30
0.0
  0
LEADER
  5
34A
330
1F
100
AcDbEntity
  8
Default
 48
0.5
100
AcDbLeader
  3
Standard
 76
     3
 10
9.156897077655187
 20
3.722587700807494
 30
0.0
 10
9.489541063403478
 20
3.064569588624877
 30
0.0
 10
10.22377730379044
 20
3.064569588624877
 30
0.0
212
6.828029155731201
222
2.228125095367431
232
0.0
1001
ACAD
1000
DSTYLE
1002
{
1070
    41
1040
0.1874999925494194
1070
   341
1005
0
1070
   176
1070
   256
1070
   371
1070
    15
1002
}
  0
MTEXT
  5
34B
330
1F
100
AcDbEntity
  8
Default
100
AcDbMText
 10
11.91289044389664
 20
7.287385102235717
 30
0.0
 40
0.1
 41
2.5
 46
0.7135417461395264
 71
     7
 72
     1
  1
\fMontserrat|b0|i0|p0;\H0.666667x;\lSTAGGER AND INSTALL END LAPS AS \P\fMontserrat|b0|i0|p0;\H1.000000x;\lSPECIFIED PER FRSA/TRI MANUAL (SEE \P\fMontserrat|b0|i0|p0;\H1.000000x;\lGENERAL NOTE #3).\P
  7
Montserrat
 73
     1
 44
1.0
  0
MTEXT
  5
34C
330
1F
100
AcDbEntity
  8
Default
100
AcDbMText
 10
6.363896975612036
 20
1.211444493257445
 30
0.0
 40
0.1
 41
2.135308027267456
 46
1.520834445953369
 71
     8
 72
     1
  1
\fMontserrat|b0|i0|p0;\H0.500000x;\lFORTIFIED HOMETM  - HURRICANE (2020)\P\fMontserrat|b0|i0|p0;\H1.000000x;\lFORTIFIED HOMETM  - HIGH WIND (2020)\P\P
  7
Montserrat
 73
     1
 44
1.0
  0
TEXT
  5
34D
330
1F
100
AcDbEntity
  8
Default
100
AcDbText
 10
5.609289894198767
 20
1.997240980700246
 30
0.0
 40
0.0754335224628449
  1
%%UAPPLICABLE STANDARDS:
  7
RockwellBold
 11
5.609289894198767
 21
1.971861477815551
 31
0.0
100
AcDbText
 73
     1
  0
IMAGE
  5
34E
330
1F
100
AcDbEntity
  8
Images
160
               140
310
8C00000001000000840000000600000005000000A0EF4A61D3FF0E40405CF79EBD0CF53F0000000000000000A0EF4A61D3FF0E40405CF71EBD0CFF3F0000000000000000D077A5B0E97F1440405CF71EBD0CFF3F0000000000000000D077A5B0E97F1440405CF79EBD0CF53F0000000000000000A0EF4A61D3FF0E40405CF7
310
9EBD0CF53F0000000000000000
100
AcDbRasterImage
 90
        0
 10
3.874914894198767
 20
1.315610524141234
 30
0.0
 11
0.0010137875101379
 21
0.0
 31
0.0
 12
0.0
 22
0.0010702046629501
 32
0.0
 13
1233.0
 23
584.0
340
29A
 70
    15
280
     0
281
    50
282
    50
283
     0
290
     0
360
34F
 71
     1
 91
        2
 14
-0.5
 24
-0.5
 14
1232.5
 24
583.4999999999999
  0
LEADER
  5
350
330
1F
100
AcDbEntity
  8
Default
 48
0.5
100
AcDbLeader
  3
Standard
 72
     1
 76
     7
 10
11.34726183183188
 20
6.549895404101121
 30
0.0
 10
11.34348879239219
 20
6.870092498274757
 30
0.0
 10
11.38176427708636
 20
7.123496933685387
 30
0.0
 10
11.45120640189084
 20
7.317139399024895
 30
0.0
 10
11.54093328278209
 20
7.458050582985165
 30
0.0
 10
11.64006303573656
 20
7.553261174258082
 30
0.0
 10
11.78258392898529
 20
7.625768081392166
 30
0.0
212
8.386835780926048
222
6.78932358813472
232
0.0
1001
ACAD
1000
DSTYLE
1002
{
1070
    41
1040
0.0
1070
   341
1005
2A1
1070
   176
1070
   256
1070
   371
1070
    15
1002
}
  0
INSERT
  5
351
330
1F
100
AcDbEntity
  8
0
100
AcDbBlockReference
  2
ANNO_3
 10
3.39574814805924
 20
0.8364444932574457
 30
0.0
  0
LEADER
  5
352
330
1F
100
AcDbEntity
  8
Default
 48
0.5
100
AcDbLeader
  3
Standard
 72
     1
 76
     7
 10
10.60532298459834
 20
7.150871555355266
 30
0.0
 10
10.7533428576698
 20
7.582657504366366
 30
0.0
 10
10.88267975355661
 20
7.893387168971244
 30
0.0
 10
10.99549326402298
 20
8.102890753949182
 30
0.0
 10
11.09394298083312
 20
8.230998464079462
 30
0.0
 10
11.18018849575124
 20
8.297540504141366
 30
0.0
 10
11.29139799656509
 20
8.325296505810698
 30
0.0
212
7.895649848505854
222
7.488852012553252
232
0.0
1001
ACAD
1000
DSTYLE
1002
{
1070
    41
1040
0.0
1070
   341
1005
2A1
1070
   176
1070
   256
1070
   371
1070
    15
1002
}
  0
INSERT
  5
353
330
1F
100
AcDbEntity
  8
0
100
AcDbBlockReference
  2
ANNO_4
 10
3.39574814805924
 20
0.8364444932574457
 30
0.0
  0
LEADER
  5
354
330
1F
100
AcDbEntity
  8
Default
 48
0.5
100
AcDbLeader
  3
Standard
 72
     1
 76
     6
 10
6.271726375065512
 20
5.363597169392747
 30
0.0
 10
5.619298687290168
 20
5.231106497221631
 30
0.0
 10
5.258020500417799
 20
5.12020843230654
 30
0.0
 10
5.081912902007346
 20
5.042576216501188
 30
0.0
 10
4.959947865570896
 20
4.963097847406757
 30
0.0
 10
4.894137054854539
 20
4.882728169080806
 30
0.0
212
1.498388906795298
222
4.04628367582336
232
0.0
1001
ACAD
1000
DSTYLE
1002
{
1070
    41
1040
0.0
1070
   341
1005
2A1
1070
   176
1070
   256
1070
   371
1070
    15
1002
}
  0
INSERT
  5
355
330
1F
100
AcDbEntity
  8
0
100
AcDbBlockReference
  2
ANNO_5
 10
3.39574814805924
 20
0.8364444932574457
 30
0.0
  0
LINE
  5
356
330
1F
100
AcDbEntity
  8
Default
 48
0.5
370
    15
100
AcDbLine
 10
9.26141501436173
 20
3.74834835144226
 30
0.0
 11
7.455845365619055
 21
3.304368611299437
 31
0.0
  0
LINE
  5
357
330
1F
100
AcDbEntity
  8
Default
 48
0.5
370
    15
100
AcDbLine
 10
12.12365818986832
 20
4.453880425416869
 30
0.0
 11
13.80057812700211
 21
4.86789762588684
 31
0.0
  0
LINE
  5
358
330
1F
100
AcDbEntity
  8
Default
  6
DASHED
 48
0.5
370
    15
100
AcDbLine
 10
13.20909214982926
 20
5.68593847366516
 30
0.0
 11
7.104089031314245
 21
4.53020870300476
 31
0.0
  0
LINE
  5
359
330
1F
100
AcDbEntity
  8
Default
  6
DASHED
 48
0.5
370
    15
100
AcDbLine
 10
7.160449037646642
 20
5.549154396974486
 30
0.0
 11
12.72983361253678
 21
6.351089592897338
 31
0.0
  0
LINE
  5
35A
330
1F
100
AcDbEntity
  8
Default
  6
DASHED
 48
0.5
370
    15
100
AcDbLine
 10
12.25146103868424
 20
5.712771531068725
 30
0.0
 11
12.42225171098648
 21
5.445644494020385
 31
0.0
  0
LINE
  5
35B
330
1F
100
AcDbEntity
  8
Default
  6
DASHED
 48
0.5
370
    15
100
AcDbLine
 10
13.1023874379152
 20
5.581538554155272
 30
0.0
 11
7.453079233264318
 21
4.478244420015258
 31
0.0
  0
LINE
  5
371
330
1F
100
AcDbEntity
  8
Default
 48
0.5
370
    15
100
AcDbLine
 10
6.430932054614416
 20
6.526904459916991
 30
0.0
 11
6.471402177905432
 21
6.824297543489379
 31
0.0
  0
LINE
  5
372
330
1F
100
AcDbEntity
  8
Default
 48
0.5
370
    15
100
AcDbLine
 10
6.471402177905432
 20
6.824297543489379
 30
0.0
 11
6.471389064883581
 21
6.82436358543579
 31
0.0
  0
LINE
  5
373
330
1F
100
AcDbEntity
  8
0
 60
     1
100
AcDbLine
 10
6.471389064883581
 20
6.82436358543579
 30
0.0
 11
6.430932054614416
 21
6.526904459916991
 31
0.0
  0
LINE
  5
374
330
1F
100
AcDbEntity
  8
Default
 48
0.5
370
    15
100
AcDbLine
 10
6.430907259082189
 20
6.527030583345336
 30
0.0
 11
6.368015060519567
 21
6.064824458085936
 31
0.0
  0
LINE
  5
375
330
1F
100
AcDbEntity
  8
Default
 48
0.5
370
    15
100
AcDbLine
 10
6.368015060519567
 20
6.064824458085936
 30
0.0
 11
6.320758113955847
 21
5.717527504884643
 31
0.0
  0
LINE
  5
376
330
1F
100
AcDbEntity
  8
0
 60
     1
100
AcDbLine
 10
6.320758113955847
 20
5.717527504884643
 30
0.0
 11
6.430907259082189
 21
6.527030583345336
 31
0.0
  0
LINE
  5
377
330
1F
100
AcDbEntity
  8
Default
 48
0.5
370
    15
100
AcDbLine
 10
9.26141501436173
 20
3.74834835144226
 30
0.0
 11
9.261451253985754
 21
3.748424645387572
 31
0.0
  0
LINE
  5
378
330
1F
100
AcDbEntity
  8
0
 60
     1
100
AcDbLine
 10
9.261451253985754
 20
3.748424645387572
 30
0.0
 11
9.26141501436173
 21
3.74834835144226
 31
0.0
  0
LINE
  5
379
330
1F
100
AcDbEntity
  8
Default
 48
0.5
370
    15
100
AcDbLine
 10
7.963998327350012
 20
6.954554434739989
 30
0.0
 11
7.960948000048986
 21
6.962299462282103
 31
0.0
  0
LINE
  5
37A
330
1F
100
AcDbEntity
  8
0
 60
     1
100
AcDbLine
 10
7.960948000048986
 20
6.962299462282103
 30
0.0
 11
7.963998327350012
 21
6.954554434739989
 31
0.0
  0
LINE
  5
37B
330
1F
100
AcDbEntity
  8
Default
 48
0.5
370
    15
100
AcDbLine
 10
8.65022231111466
 20
7.013614531480712
 30
0.0
 11
8.646853933429113
 21
7.02113043876831
 31
0.0
  0
LINE
  5
37C
330
1F
100
AcDbEntity
  8
0
 60
     1
100
AcDbLine
 10
8.646853933429113
 20
7.02113043876831
 30
0.0
 11
8.65022231111466
 21
7.013614531480712
 31
0.0
  0
LINE
  5
37D
330
1F
100
AcDbEntity
  8
Default
 48
0.5
370
    15
100
AcDbLine
 10
9.901703367328039
 20
7.121413584672851
 30
0.0
 11
9.897854337787023
 21
7.128429528200072
 31
0.0
  0
LINE
  5
37E
330
1F
100
AcDbEntity
  8
0
 60
     1
100
AcDbLine
 10
9.897854337787023
 20
7.128429528200072
 30
0.0
 11
9.901703367328039
 21
7.121413584672851
 31
0.0
  0
LINE
  5
37F
330
1F
100
AcDbEntity
  8
Default
 48
0.5
370
    15
100
AcDbLine
 10
10.47388030061661
 20
7.170699473344726
 30
0.0
 11
10.46983910570084
 21
7.177489396058959
 31
0.0
  0
LINE
  5
380
330
1F
100
AcDbEntity
  8
0
 60
     1
100
AcDbLine
 10
10.46983910570084
 20
7.177489396058959
 30
0.0
 11
10.47388030061661
 21
7.170699473344726
 31
0.0
  0
LINE
  5
381
330
1F
100
AcDbEntity
  8
Default
 48
0.5
370
    15
100
AcDbLine
 10
11.01428414354264
 20
7.217291470491332
 30
0.0
 11
11.01010514268814
 21
7.223828431093139
 31
0.0
  0
LINE
  5
382
330
1F
100
AcDbEntity
  8
0
 60
     1
100
AcDbLine
 10
11.01010514268814
 20
7.223828431093139
 30
0.0
 11
11.01428414354264
 21
7.217291470491332
 31
0.0
  0
LINE
  5
383
330
1F
100
AcDbEntity
  8
Default
 48
0.5
370
    15
100
AcDbLine
 10
11.50997925767838
 20
7.259988423311156
 30
0.0
 11
11.50566483507096
 21
7.26633250328247
 31
0.0
  0
LINE
  5
384
330
1F
100
AcDbEntity
  8
Default
 48
0.5
370
    15
100
AcDbLine
 10
11.50566483507096
 20
7.26633250328247
 30
0.0
 11
11.50511742601334
 21
7.259569521867675
 31
0.0
  0
LINE
  5
385
330
1F
100
AcDbEntity
  8
0
 60
     1
100
AcDbLine
 10
11.50511742601334
 20
7.259569521867675
 30
0.0
 11
11.50997925767838
 21
7.259988423311156
 31
0.0
  0
LINE
  5
386
330
1F
100
AcDbEntity
  8
Default
 48
0.5
370
    15
100
AcDbLine
 10
11.99073029527603
 20
7.307937499010009
 30
0.0
 11
11.99516583452164
 21
7.301779385530394
 31
0.0
  0
LINE
  5
387
330
1F
100
AcDbEntity
  8
0
 60
     1
100
AcDbLine
 10
11.99516583452164
 20
7.301779385530394
 30
0.0
 11
11.99073029527603
 21
7.307937499010009
 31
0.0
  0
LINE
  5
388
330
1F
100
AcDbEntity
  8
Default
 48
0.5
370
    15
100
AcDbLine
 10
6.319102058505407
 20
5.705604430162352
 30
0.0
 11
6.319128046130529
 21
5.705550547563476
 31
0.0
  0
LINE
  5
389
330
1F
100
AcDbEntity
  8
Default
 48
0.5
370
    15
100
AcDbLine
 10
6.319128046130529
 20
5.705550547563476
 30
0.0
 11
6.323874244784704
 21
5.695477601015014
 31
0.0
  0
LINE
  5
38A
330
1F
100
AcDbEntity
  8
0
 60
     1
100
AcDbLine
 10
6.323874244784704
 20
5.695477601015014
 30
0.0
 11
6.319102058505407
 21
5.705604430162352
 31
0.0
  0
LINE
  5
38B
330
1F
100
AcDbEntity
  8
Default
 48
0.5
370
    15
100
AcDbLine
 10
7.47405100831925
 20
3.105608578645629
 30
0.0
 11
7.454583177661291
 21
3.295669671022338
 31
0.0
  0
LINE
  5
38C
330
1F
100
AcDbEntity
  8
Default
 48
0.5
370
    15
100
AcDbLine
 10
7.454583177661291
 20
3.295669671022338
 30
0.0
 11
7.439821252917639
 21
3.327000256502074
 31
0.0
  0
LINE
  5
38D
330
1F
100
AcDbEntity
  8
Default
 48
0.5
370
    15
100
AcDbLine
 10
7.439821252917639
 20
3.327000256502074
 30
0.0
 11
7.436235914325109
 21
3.361805554353637
 31
0.0
  0
LINE
  5
38E
330
1F
100
AcDbEntity
  8
Default
 48
0.5
370
    15
100
AcDbLine
 10
7.436235914325109
 20
3.361805554353637
 30
0.0
 11
7.436218271350256
 21
3.361986275636596
 31
0.0
  0
LINE
  5
38F
330
1F
100
AcDbEntity
  8
0
 60
     1
100
AcDbLine
 10
7.436218271350256
 20
3.361986275636596
 30
0.0
 11
7.47405100831925
 21
3.105608578645629
 31
0.0
  0
LINE
  5
390
330
1F
100
AcDbEntity
  8
Default
 48
0.5
370
    15
100
AcDbLine
 10
6.477600107287756
 20
6.826524611436767
 30
0.0
 11
6.644448051547399
 21
6.225485440217894
 31
0.0
  0
LINE
  5
391
330
1F
100
AcDbEntity
  8
Default
 48
0.5
370
    15
100
AcDbLine
 10
6.644448051547399
 20
6.225485440217894
 30
0.0
 11
7.01133013734757
 21
4.903976555787963
 31
0.0
  0
LINE
  5
392
330
1F
100
AcDbEntity
  8
Default
 48
0.5
370
    15
100
AcDbLine
 10
7.01133013734757
 20
4.903976555787963
 30
0.0
 11
7.455686102008215
 21
3.303279515230101
 31
0.0
  0
LINE
  5
393
330
1F
100
AcDbEntity
  8
Default
 48
0.5
370
    15
100
AcDbLine
 10
7.455686102008215
 20
3.303279515230101
 30
0.0
 11
7.454583177661291
 21
3.295669671022338
 31
0.0
  0
LINE
  5
394
330
1F
100
AcDbEntity
  8
0
 60
     1
100
AcDbLine
 10
7.454583177661291
 20
3.295669671022338
 30
0.0
 11
6.477600107287756
 21
6.826524611436767
 31
0.0
  0
LINE
  5
395
330
1F
100
AcDbEntity
  8
Default
 48
0.5
370
    15
100
AcDbLine
 10
10.49991036424576
 20
7.172986384355468
 30
0.0
 11
10.73217535982071
 21
6.783985491716308
 31
0.0
  0
LINE
  5
396
330
1F
100
AcDbEntity
  8
0
 60
     1
100
AcDbLine
 10
10.73217535982071
 20
6.783985491716308
 30
0.0
 11
10.49991036424576
 21
7.172986384355468
 31
0.0
  0
LINE
  5
397
330
1F
100
AcDbEntity
  8
Default
 48
0.5
370
    15
100
AcDbLine
 10
6.495428094958654
 20
6.658290501558226
 30
0.0
 11
6.337878236865392
 21
5.596385594331664
 31
0.0
  0
LINE
  5
398
330
1F
100
AcDbEntity
  8
Default
 48
0.5
370
    15
100
AcDbLine
 10
6.337878236865392
 20
5.596385594331664
 30
0.0
 11
6.340994129275671
 21
5.574337597810668
 31
0.0
  0
LINE
  5
399
330
1F
100
AcDbEntity
  8
0
 60
     1
100
AcDbLine
 10
6.340994129275671
 20
5.574337597810668
 30
0.0
 11
6.495428094958654
 21
6.658290501558226
 31
0.0
  0
LINE
  5
39A
330
1F
100
AcDbEntity
  8
Default
 48
0.5
370
    15
100
AcDbLine
 10
7.255727062320104
 20
6.893548603975219
 30
0.0
 11
7.253011236285558
 21
6.901579495393676
 31
0.0
  0
LINE
  5
39B
330
1F
100
AcDbEntity
  8
Default
 48
0.5
370
    15
100
AcDbLine
 10
7.253011236285558
 20
6.901579495393676
 30
0.0
 11
7.253793249225012
 21
6.893381472551268
 31
0.0
  0
LINE
  5
39C
330
1F
100
AcDbEntity
  8
0
 60
     1
100
AcDbLine
 10
7.253793249225012
 20
6.893381472551268
 30
0.0
 11
7.255727062320104
 21
6.893548603975219
 31
0.0
  0
LINE
  5
39D
330
1F
100
AcDbEntity
  8
Default
 48
0.5
370
    15
100
AcDbLine
 10
9.294897089099279
 20
7.069145556413573
 30
0.0
 11
9.291271219348303
 21
7.076402541124267
 31
0.0
  0
LINE
  5
39E
330
1F
100
AcDbEntity
  8
0
 60
     1
100
AcDbLine
 10
9.291271219348303
 20
7.076402541124267
 30
0.0
 11
9.294897089099279
 21
7.069145556413573
 31
0.0
  0
LINE
  5
39F
330
1F
100
AcDbEntity
  8
Default
 48
0.5
370
    15
100
AcDbLine
 10
11.10297204027115
 20
6.023001547777099
 30
0.0
 11
7.121729145144811
 21
5.426244374238891
 31
0.0
  0
LINE
  5
3A0
330
1F
100
AcDbEntity
  8
0
 60
     1
100
AcDbLine
 10
7.121729145144811
 20
5.426244374238891
 30
0.0
 11
11.10297204027115
 21
6.023001547777099
 31
0.0
  0
LINE
  5
3A1
330
1F
100
AcDbEntity
  8
Default
 48
0.5
370
    15
100
AcDbLine
 10
7.160529146289221
 20
5.550513382875365
 30
0.0
 11
7.164935121631017
 21
5.531530495607299
 31
0.0
  0
LINE
  5
3A2
330
1F
100
AcDbEntity
  8
0
 60
     1
100
AcDbLine
 10
7.164935121631017
 20
5.531530495607299
 30
0.0
 11
7.160529146289221
 21
5.550513382875365
 31
0.0
  0
LINE
  5
3A3
330
1F
100
AcDbEntity
  8
Default
 48
0.5
370
    15
100
AcDbLine
 10
13.80058861741959
 20
4.867896672212523
 30
0.0
 11
7.455845365619055
 21
3.304367657625121
 31
0.0
  0
LINE
  5
3A4
330
1F
100
AcDbEntity
  8
0
 60
     1
100
AcDbLine
 10
7.455845365619055
 20
3.304367657625121
 30
0.0
 11
13.80058861741959
 21
4.867896672212523
 31
0.0
  0
LINE
  5
3A5
330
1F
100
AcDbEntity
  8
Default
 48
0.5
370
    15
100
AcDbLine
 10
7.455686102008215
 20
3.303279515230101
 30
0.0
 11
7.455845365619055
 21
3.304367657625121
 31
0.0
  0
LINE
  5
3A6
330
1F
100
AcDbEntity
  8
Default
 48
0.5
370
    15
100
AcDbLine
 10
7.455845365619055
 20
3.304367657625121
 30
0.0
 11
7.11436820993363
 21
4.534808274232787
 31
0.0
  0
LINE
  5
3A7
330
1F
100
AcDbEntity
  8
0
 60
     1
100
AcDbLine
 10
7.11436820993363
 20
4.534808274232787
 30
0.0
 11
7.455686102008215
 21
3.303279515230101
 31
0.0
  0
LINE
  5
3A8
330
1F
100
AcDbEntity
  8
Default
 48
0.5
370
    15
100
AcDbLine
 10
9.261451253985754
 20
3.748424645387572
 30
0.0
 11
12.12365818986832
 21
4.453879471742553
 31
0.0
  0
LINE
  5
3A9
330
1F
100
AcDbEntity
  8
0
 60
     1
100
AcDbLine
 10
12.12365818986832
 20
4.453879471742553
 30
0.0
 11
9.261451253985754
 21
3.748424645387572
 31
0.0
  0
LINE
  5
3AA
330
1F
100
AcDbEntity
  8
Default
 48
0.5
370
    15
100
AcDbLine
 10
12.42225171098648
 20
5.445644494020385
 30
0.0
 11
7.146636257266393
 21
4.421634312593383
 31
0.0
  0
LINE
  5
3AB
330
1F
100
AcDbEntity
  8
0
 60
     1
100
AcDbLine
 10
7.146636257266393
 20
4.421634312593383
 30
0.0
 11
12.42225171098648
 21
5.445644494020385
 31
0.0
  0
LINE
  5
3AC
330
1F
100
AcDbEntity
  8
Default
 48
0.5
370
    15
100
AcDbLine
 10
7.146552095507971
 20
4.420387383424682
 30
0.0
 11
7.146636257266393
 21
4.421634312593383
 31
0.0
  0
LINE
  5
3AD
330
1F
100
AcDbEntity
  8
Default
 48
0.5
370
    15
100
AcDbLine
 10
7.146636257266393
 20
4.421634312593383
 30
0.0
 11
6.847444067096105
 21
5.499495383226317
 31
0.0
  0
LINE
  5
3AE
330
1F
100
AcDbEntity
  8
0
 60
     1
100
AcDbLine
 10
6.847444067096105
 20
5.499495383226317
 30
0.0
 11
7.146552095507971
 21
4.420387383424682
 31
0.0
  0
LINE
  5
3AF
330
1F
100
AcDbEntity
  8
Default
 48
0.5
370
    15
100
AcDbLine
 10
12.28207398424088
 20
5.416529532396239
 30
0.0
 11
12.2829589940065
 21
5.41765439125244
 31
0.0
  0
LINE
  5
3B0
330
1F
100
AcDbEntity
  8
0
 60
     1
100
AcDbLine
 10
12.2829589940065
 20
5.41765439125244
 30
0.0
 11
12.28207398424088
 21
5.416529532396239
 31
0.0
  0
LINE
  5
3B1
330
1F
100
AcDbEntity
  8
Default
 48
0.5
370
    15
100
AcDbLine
 10
10.95316220292984
 20
5.998318549119872
 30
0.0
 11
10.95383311281143
 21
5.999532576524657
 31
0.0
  0
LINE
  5
3B2
330
1F
100
AcDbEntity
  8
0
 60
     1
100
AcDbLine
 10
10.95383311281143
 20
5.999532576524657
 30
0.0
 11
10.95316220292984
 21
5.998318549119872
 31
0.0
  0
LINE
  5
3B3
330
1F
100
AcDbEntity
  8
Default
 48
0.5
370
    15
100
AcDbLine
 10
11.01292897233902
 20
7.226571436845702
 30
0.0
 11
11.01291419038712
 21
7.226626511537475
 31
0.0
  0
LINE
  5
3B4
330
1F
100
AcDbEntity
  8
0
 60
     1
100
AcDbLine
 10
11.01291419038712
 20
7.226626511537475
 30
0.0
 11
11.01292897233902
 21
7.226571436845702
 31
0.0
  0
LINE
  5
3B5
330
1F
100
AcDbEntity
  8
Default
 48
0.5
370
    15
100
AcDbLine
 10
6.471389064883581
 20
6.82436358543579
 30
0.0
 11
6.46871710786759
 21
6.837481375657958
 31
0.0
  0
LINE
  5
3B6
330
1F
100
AcDbEntity
  8
0
 60
     1
100
AcDbLine
 10
6.46871710786759
 20
6.837481375657958
 30
0.0
 11
6.471389064883581
 21
6.82436358543579
 31
0.0
  0
LINE
  5
3B7
330
1F
100
AcDbEntity
  8
Default
 48
0.5
370
    15
100
AcDbLine
 10
12.1170768834108
 20
4.446438427888793
 30
0.0
 11
12.11701012620865
 21
4.446366425477904
 31
0.0
  0
LINE
  5
3B8
330
1F
100
AcDbEntity
  8
Default
 48
0.5
370
    15
100
AcDbLine
 10
12.11701012620865
 20
4.446366425477904
 30
0.0
 11
9.257839212512365
 21
3.740716572725219
 31
0.0
  0
LINE
  5
3B9
330
1F
100
AcDbEntity
  8
0
 60
     1
100
AcDbLine
 10
9.257839212512365
 20
3.740716572725219
 30
0.0
 11
12.1170768834108
 21
4.446438427888793
 31
0.0
  0
LINE
  5
3BA
330
1F
100
AcDbEntity
  8
Default
 48
0.5
370
    15
100
AcDbLine
 10
6.428456077670446
 20
6.539168473207396
 30
0.0
 11
6.428431043719641
 21
6.539291497194213
 31
0.0
  0
LINE
  5
3BB
330
1F
100
AcDbEntity
  8
0
 60
     1
100
AcDbLine
 10
6.428431043719641
 20
6.539291497194213
 30
0.0
 11
6.428456077670446
 21
6.539168473207396
 31
0.0
  0
LINE
  5
3BC
330
1F
100
AcDbEntity
  8
Default
 48
0.5
370
    15
100
AcDbLine
 10
6.319128046130529
 20
5.705550547563476
 30
0.0
 11
6.320758113955847
 21
5.717527504884643
 31
0.0
  0
LINE
  5
3BD
330
1F
100
AcDbEntity
  8
0
 60
     1
100
AcDbLine
 10
6.320758113955847
 20
5.717527504884643
 30
0.0
 11
6.319128046130529
 21
5.705550547563476
 31
0.0
  0
LINE
  5
3BE
330
1F
100
AcDbEntity
  8
Default
 48
0.5
370
    15
100
AcDbLine
 10
13.2667408085817
 20
5.608662482225341
 30
0.0
 11
12.4213514424318
 21
5.444524403535766
 31
0.0
  0
LINE
  5
3BF
330
1F
100
AcDbEntity
  8
0
 60
     1
100
AcDbLine
 10
12.4213514424318
 20
5.444524403535766
 30
0.0
 11
13.2667408085817
 21
5.608662482225341
 31
0.0
  0
LINE
  5
3C0
330
1F
100
AcDbEntity
  8
Default
 48
0.5
370
    15
100
AcDbLine
 10
12.78850174913346
 20
6.274643536531371
 30
0.0
 11
11.10228205690323
 21
6.021792527162475
 31
0.0
  0
LINE
  5
3C1
330
1F
100
AcDbEntity
  8
0
 60
     1
100
AcDbLine
 10
11.10228205690323
 20
6.021792527162475
 30
0.0
 11
12.78850174913346
 21
6.274643536531371
 31
0.0
  0
LINE
  5
3C2
330
1F
100
AcDbEntity
  8
Default
 48
0.5
370
    15
100
AcDbLine
 10
7.010951051806799
 20
4.894857521974486
 30
0.0
 11
7.436218271350256
 21
3.361986275636596
 31
0.0
  0
LINE
  5
3C3
330
1F
100
AcDbEntity
  8
0
 60
     1
100
AcDbLine
 10
7.436218271350256
 20
3.361986275636596
 30
0.0
 11
7.010951051806799
 21
4.894857521974486
 31
0.0
  0
LINE
  5
3C4
330
1F
100
AcDbEntity
  8
Default
 48
0.5
370
    15
100
AcDbLine
 10
6.472791204547277
 20
6.834658499681395
 30
0.0
 11
6.644571075534216
 21
6.215477581941527
 31
0.0
  0
LINE
  5
3C5
330
1F
100
AcDbEntity
  8
0
 60
     1
100
AcDbLine
 10
6.644571075534216
 20
6.215477581941527
 30
0.0
 11
6.472791204547277
 21
6.834658499681395
 31
0.0
  0
LINE
  5
3C6
330
1F
100
AcDbEntity
  8
Default
 48
0.5
370
    15
100
AcDbLine
 10
11.77594567308365
 20
6.432975407564086
 30
0.0
 11
11.96108723649918
 21
6.151448603593749
 31
0.0
  0
LINE
  5
3C7
330
1F
100
AcDbEntity
  8
Default
 48
0.5
370
    15
100
AcDbLine
 10
11.96108723649918
 20
6.151448603593749
 30
0.0
 11
11.96583558092057
 21
6.158536549531859
 31
0.0
  0
LINE
  5
3C8
330
1F
100
AcDbEntity
  8
0
 60
     1
100
AcDbLine
 10
11.96583558092057
 20
6.158536549531859
 30
0.0
 11
11.77594567308365
 21
6.432975407564086
 31
0.0
  0
LINE
  5
3C9
330
1F
100
AcDbEntity
  8
Default
 48
0.5
370
    15
100
AcDbLine
 10
10.93963433275162
 20
6.299568530046386
 30
0.0
 11
10.95585537919937
 21
6.333533402406615
 31
0.0
  0
LINE
  5
3CA
330
1F
100
AcDbEntity
  8
0
 60
     1
100
AcDbLine
 10
10.95585537919937
 20
6.333533402406615
 30
0.0
 11
10.93963433275162
 21
6.299568530046386
 31
0.0
  0
LINE
  5
3CB
330
1F
100
AcDbEntity
  8
Default
 48
0.5
370
    15
100
AcDbLine
 10
11.80236054429947
 20
6.447972413026732
 30
0.0
 11
11.78896142015396
 21
6.413183566057128
 31
0.0
  0
LINE
  5
3CC
330
1F
100
AcDbEntity
  8
Default
 48
0.5
370
    15
100
AcDbLine
 10
11.78896142015396
 20
6.413183566057128
 30
0.0
 11
11.77545262346207
 21
6.378110524141234
 31
0.0
  0
LINE
  5
3CD
330
1F
100
AcDbEntity
  8
0
 60
     1
100
AcDbLine
 10
11.77545262346207
 20
6.378110524141234
 30
0.0
 11
11.80236054429947
 21
6.447972413026732
 31
0.0
  0
LINE
  5
3CE
330
1F
100
AcDbEntity
  8
Default
 48
0.5
370
    15
100
AcDbLine
 10
11.82235146531998
 20
6.417697545015258
 30
0.0
 11
11.78896142015396
 21
6.413183566057128
 31
0.0
  0
LINE
  5
3CF
330
1F
100
AcDbEntity
  8
Default
 48
0.5
370
    15
100
AcDbLine
 10
11.78896142015396
 20
6.413183566057128
 30
0.0
 11
11.38852215776383
 21
6.359048481904906
 31
0.0
  0
LINE
  5
3D0
330
1F
100
AcDbEntity
  8
0
 60
     1
100
AcDbLine
 10
11.38852215776383
 20
6.359048481904906
 30
0.0
 11
11.82235146531998
 21
6.417697545015258
 31
0.0
  0
LINE
  5
3D1
330
1F
100
AcDbEntity
  8
Default
 48
0.5
370
    15
100
AcDbLine
 10
10.94029427537857
 20
6.298452492677611
 30
0.0
 11
11.35882092485367
 21
6.355033513032836
 31
0.0
  0
LINE
  5
3D2
330
1F
100
AcDbEntity
  8
0
 60
     1
100
AcDbLine
 10
11.35882092485367
 20
6.355033513032836
 30
0.0
 11
10.94029427537857
 21
6.298452492677611
 31
0.0
  0
LINE
  5
3D3
330
1F
100
AcDbEntity
  8
Default
 48
0.5
370
    15
100
AcDbLine
 10
10.50705910692154
 20
6.769557591401976
 30
0.0
 11
10.43937016496598
 21
6.894467469179076
 31
0.0
  0
LINE
  5
3D4
330
1F
100
AcDbEntity
  8
0
 60
     1
100
AcDbLine
 10
10.43937016496598
 20
6.894467469179076
 30
0.0
 11
10.50705910692154
 21
6.769557591401976
 31
0.0
  0
LINE
  5
3D5
330
1F
100
AcDbEntity
  8
Default
 48
0.5
370
    15
100
AcDbLine
 10
10.65072823533951
 20
6.784917469942016
 30
0.0
 11
10.58232213029801
 21
6.908782597505492
 31
0.0
  0
LINE
  5
3D6
330
1F
100
AcDbEntity
  8
0
 60
     1
100
AcDbLine
 10
10.58232213029801
 20
6.908782597505492
 30
0.0
 11
10.65072823533951
 21
6.784917469942016
 31
0.0
  0
LINE
  5
3D7
330
1F
100
AcDbEntity
  8
Default
 48
0.5
370
    15
100
AcDbLine
 10
10.43096209535538
 20
6.839847441636962
 30
0.0
 11
10.45040799150406
 21
6.874098416292113
 31
0.0
  0
LINE
  5
3D8
330
1F
100
AcDbEntity
  8
Default
 48
0.5
370
    15
100
AcDbLine
 10
10.45040799150406
 20
6.874098416292113
 30
0.0
 11
10.46970225343644
 21
6.90808260055725
 31
0.0
  0
LINE
  5
3D9
330
1F
100
AcDbEntity
  8
0
 60
     1
100
AcDbLine
 10
10.46970225343644
 20
6.90808260055725
 30
0.0
 11
10.43096209535538
 21
6.839847441636962
 31
0.0
  0
LINE
  5
3DA
330
1F
100
AcDbEntity
  8
Default
 48
0.5
370
    15
100
AcDbLine
 10
10.41445303926407
 20
6.87045847984497
 30
0.0
 11
10.45040799150406
 21
6.874098416292113
 31
0.0
  0
LINE
  5
3DB
330
1F
100
AcDbEntity
  8
Default
 48
0.5
370
    15
100
AcDbLine
 10
10.45040799150406
 20
6.874098416292113
 30
0.0
 11
10.5073561764711
 21
6.879864569627685
 31
0.0
  0
LINE
  5
3DC
330
1F
100
AcDbEntity
  8
0
 60
     1
100
AcDbLine
 10
10.5073561764711
 20
6.879864569627685
 30
0.0
 11
10.41445303926407
 21
6.87045847984497
 31
0.0
  0
LINE
  5
3DD
330
1F
100
AcDbEntity
  8
Default
 48
0.5
370
    15
100
AcDbLine
 10
10.6122112370485
 20
6.922509547197265
 30
0.0
 11
10.59347725877701
 21
6.888583537065429
 31
0.0
  0
LINE
  5
3DE
330
1F
100
AcDbEntity
  8
Default
 48
0.5
370
    15
100
AcDbLine
 10
10.59347725877701
 20
6.888583537065429
 30
0.0
 11
10.57459498414933
 21
6.854388590776366
 31
0.0
  0
LINE
  5
3DF
330
1F
100
AcDbEntity
  8
0
 60
     1
100
AcDbLine
 10
10.57459498414933
 20
6.854388590776366
 30
0.0
 11
10.6122112370485
 21
6.922509547197265
 31
0.0
  0
LINE
  5
3E0
330
1F
100
AcDbEntity
  8
Default
 48
0.5
370
    15
100
AcDbLine
 10
10.62903691301285
 20
6.892182465516967
 30
0.0
 11
10.59347725877701
 21
6.888583537065429
 31
0.0
  0
LINE
  5
3E1
330
1F
100
AcDbEntity
  8
Default
 48
0.5
370
    15
100
AcDbLine
 10
10.59347725877701
 20
6.888583537065429
 30
0.0
 11
10.53705597886978
 21
6.882870551072997
 31
0.0
  0
LINE
  5
3E2
330
1F
100
AcDbEntity
  8
0
 60
     1
100
AcDbLine
 10
10.53705597886978
 20
6.882870551072997
 30
0.0
 11
10.62903691301285
 21
6.892182465516967
 31
0.0
  0
LINE
  5
3E3
330
1F
100
AcDbEntity
  8
Default
 48
0.5
370
    15
100
AcDbLine
 10
7.146894226168981
 20
5.5485404691333
 30
0.0
 11
6.632717142199865
 21
5.474141474687499
 31
0.0
  0
LINE
  5
3E4
330
1F
100
AcDbEntity
  8
0
 60
     1
100
AcDbLine
 10
6.632717142199865
 20
5.474141474687499
 30
0.0
 11
7.146894226168981
 21
5.5485404691333
 31
0.0
  0
LINE
  5
3E5
330
1F
100
AcDbEntity
  8
Default
 48
0.5
370
    15
100
AcDbLine
 10
7.180825243090978
 20
5.43510257812683
 30
0.0
 11
6.663316259478918
 21
5.357531424486083
 31
0.0
  0
LINE
  5
3E6
330
1F
100
AcDbEntity
  8
0
 60
     1
100
AcDbLine
 10
6.663316259478918
 20
5.357531424486083
 30
0.0
 11
7.180825243090978
 21
5.43510257812683
 31
0.0
  0
LINE
  5
3E7
330
1F
100
AcDbEntity
  8
Default
 48
0.5
370
    15
100
AcDbLine
 10
6.609781036471716
 20
5.504540558778685
 30
0.0
 11
6.661213169192663
 21
5.478264447175902
 31
0.0
  0
LINE
  5
3E8
330
1F
100
AcDbEntity
  8
Default
 48
0.5
370
    15
100
AcDbLine
 10
6.661213169192663
 20
5.478264447175902
 30
0.0
 11
6.71268511781632
 21
5.451968546831054
 31
0.0
  0
LINE
  5
3E9
330
1F
100
AcDbEntity
  8
0
 60
     1
100
AcDbLine
 10
6.71268511781632
 20
5.451968546831054
 30
0.0
 11
6.609781036471716
 21
5.504540558778685
 31
0.0
  0
LINE
  5
3EA
330
1F
100
AcDbEntity
  8
Default
 48
0.5
370
    15
100
AcDbLine
 10
6.652642259692541
 20
5.510680552446288
 30
0.0
 11
6.661213169192663
 21
5.478264447175902
 31
0.0
  0
LINE
  5
3EB
330
1F
100
AcDbEntity
  8
Default
 48
0.5
370
    15
100
AcDbLine
 10
6.661213169192663
 20
5.478264447175902
 30
0.0
 11
6.661696205233923
 21
5.476438399278563
 31
0.0
  0
LINE
  5
3EC
330
1F
100
AcDbEntity
  8
0
 60
     1
100
AcDbLine
 10
6.661696205233923
 20
5.476438399278563
 30
0.0
 11
6.652642259692541
 21
5.510680552446288
 31
0.0
  0
LINE
  5
3ED
330
1F
100
AcDbEntity
  8
Default
 48
0.5
370
    15
100
AcDbLine
 10
6.743485221957556
 20
5.335489388429564
 30
0.0
 11
6.692001113986364
 21
5.361831541978759
 31
0.0
  0
LINE
  5
3EE
330
1F
100
AcDbEntity
  8
Default
 48
0.5
370
    15
100
AcDbLine
 10
6.692001113986364
 20
5.361831541978759
 30
0.0
 11
6.640557060336462
 21
5.388152476274413
 31
0.0
  0
LINE
  5
3EF
330
1F
100
AcDbEntity
  8
0
 60
     1
100
AcDbLine
 10
6.640557060336462
 20
5.388152476274413
 30
0.0
 11
6.743485221957556
 21
5.335489388429564
 31
0.0
  0
LINE
  5
3F0
330
1F
100
AcDbEntity
  8
Default
 48
0.5
370
    15
100
AcDbLine
 10
6.700680265521398
 20
5.329011555635375
 30
0.0
 11
6.692001113986364
 21
5.361831541978759
 31
0.0
  0
LINE
  5
3F1
330
1F
100
AcDbEntity
  8
Default
 48
0.5
370
    15
100
AcDbLine
 10
6.692001113986364
 20
5.361831541978759
 30
0.0
 11
6.691396246051183
 21
5.364119406663817
 31
0.0
  0
LINE
  5
3F2
330
1F
100
AcDbEntity
  8
0
 60
     1
100
AcDbLine
 10
6.691396246051183
 20
5.364119406663817
 30
0.0
 11
6.700680265521398
 21
5.329011555635375
 31
0.0
  0
LINE
  5
3F3
330
1F
100
AcDbEntity
  8
Default
 48
0.5
370
    15
100
AcDbLine
 10
6.337878236865392
 20
5.596385594331664
 30
0.0
 11
6.374177227115026
 21
5.601384516679686
 31
0.0
  0
LINE
  5
3F4
330
1F
100
AcDbEntity
  8
0
 60
     1
100
AcDbLine
 10
6.374177227115026
 20
5.601384516679686
 30
0.0
 11
6.337878236865392
 21
5.596385594331664
 31
0.0
  0
LINE
  5
3F5
330
1F
100
AcDbEntity
  8
Default
 48
0.5
370
    15
100
AcDbLine
 10
7.439821252917639
 20
3.327000256502074
 30
0.0
 11
7.44550515184342
 21
3.32839452835266
 31
0.0
  0
LINE
  5
3F6
330
1F
100
AcDbEntity
  8
0
 60
     1
100
AcDbLine
 10
7.44550515184342
 20
3.32839452835266
 30
0.0
 11
7.439821252917639
 21
3.327000256502074
 31
0.0
  0
LINE
  5
3F7
330
1F
100
AcDbEntity
  8
Default
 48
0.5
370
    15
100
AcDbLine
 10
6.430932054614416
 20
6.526904459916991
 30
0.0
 11
6.430907259082189
 21
6.527030583345336
 31
0.0
  0
LINE
  5
3F8
330
1F
100
AcDbEntity
  8
0
 60
     1
100
AcDbLine
 10
6.430907259082189
 20
6.527030583345336
 30
0.0
 11
6.430932054614416
 21
6.526904459916991
 31
0.0
  0
LINE
  5
3F9
330
1F
100
AcDbEntity
  8
Default
 48
0.5
370
    15
100
AcDbLine
 10
6.368015060519567
 20
6.064824458085936
 30
0.0
 11
6.36799312601029
 21
6.064937468492431
 31
0.0
  0
LINE
  5
3FA
330
1F
100
AcDbEntity
  8
0
 60
     1
100
AcDbLine
 10
6.36799312601029
 20
6.064937468492431
 30
0.0
 11
6.368015060519567
 21
6.064824458085936
 31
0.0
  0
LINE
  5
3FB
330
1F
100
AcDbEntity
  8
Default
 48
0.5
370
    15
100
AcDbLine
 10
7.436235914325109
 20
3.361805554353637
 30
0.0
 11
7.010951051806799
 21
4.894857521974486
 31
0.0
  0
LINE
  5
3FC
330
1F
100
AcDbEntity
  8
Default
 48
0.5
370
    15
100
AcDbLine
 10
7.010951051806799
 20
4.894857521974486
 30
0.0
 11
6.644571075534216
 21
6.215477581941527
 31
0.0
  0
LINE
  5
3FD
330
1F
100
AcDbEntity
  8
0
 60
     1
100
AcDbLine
 10
6.644571075534216
 20
6.215477581941527
 30
0.0
 11
7.436235914325109
 21
3.361805554353637
 31
0.0
  0
LINE
  5
3FE
330
1F
100
AcDbEntity
  8
Default
 48
0.5
370
    15
100
AcDbLine
 10
12.28152657518326
 20
5.417376395189208
 30
0.0
 11
12.28207398424088
 21
5.416529532396239
 31
0.0
  0
LINE
  5
3FF
330
1F
100
AcDbEntity
  8
Default
 48
0.5
370
    15
100
AcDbLine
 10
12.28207398424088
 20
5.416529532396239
 30
0.0
 11
13.26575661668717
 21
5.607571478807372
 31
0.0
  0
LINE
  5
400
330
1F
100
AcDbEntity
  8
Default
 48
0.5
370
    15
100
AcDbLine
 10
13.26575661668717
 20
5.607571478807372
 30
0.0
 11
13.27165413865982
 21
5.599415417634887
 31
0.0
  0
LINE
  5
401
330
1F
100
AcDbEntity
  8
0
 60
     1
100
AcDbLine
 10
13.27165413865982
 20
5.599415417634887
 30
0.0
 11
12.28152657518326
 21
5.417376395189208
 31
0.0
  0
LINE
  5
402
330
1F
100
AcDbEntity
  8
Default
 48
0.5
370
    15
100
AcDbLine
 10
9.26141501436173
 20
3.74834835144226
 30
0.0
 11
12.12359238634049
 21
4.453805561983031
 31
0.0
  0
LINE
  5
403
330
1F
100
AcDbEntity
  8
Default
 48
0.5
370
    15
100
AcDbLine
 10
12.12359238634049
 20
4.453805561983031
 30
0.0
 11
12.12365818986832
 21
4.453879471742553
 31
0.0
  0
LINE
  5
404
330
1F
100
AcDbEntity
  8
0
 60
     1
100
AcDbLine
 10
12.12365818986832
 20
4.453879471742553
 30
0.0
 11
9.26141501436173
 21
3.74834835144226
 31
0.0
  0
LINE
  5
405
330
1F
100
AcDbEntity
  8
Default
 48
0.5
370
    15
100
AcDbLine
 10
11.95964814195572
 20
6.149300452196044
 30
0.0
 11
10.95316220292984
 21
5.998318549119872
 31
0.0
  0
LINE
  5
406
330
1F
100
AcDbEntity
  8
Default
 48
0.5
370
    15
100
AcDbLine
 10
10.95316220292984
 20
5.998318549119872
 30
0.0
 11
10.95256901750504
 21
5.99934351059143
 31
0.0
  0
LINE
  5
407
330
1F
100
AcDbEntity
  8
0
 60
     1
100
AcDbLine
 10
10.95256901750504
 20
5.99934351059143
 30
0.0
 11
11.95964814195572
 21
6.149300452196044
 31
0.0
  0
LINE
  5
408
330
1F
100
AcDbEntity
  8
Default
 48
0.5
370
    15
100
AcDbLine
 10
7.991279134845129
 20
6.956855412446898
 30
0.0
 11
8.008197317218176
 21
6.958312388383788
 31
0.0
  0
LINE
  5
409
330
1F
100
AcDbEntity
  8
Default
 48
0.5
370
    15
100
AcDbLine
 10
8.008197317218176
 20
6.958312388383788
 30
0.0
 11
8.005109319781652
 21
6.966086502992553
 31
0.0
  0
LINE
  5
40A
330
1F
100
AcDbEntity
  8
Default
 48
0.5
370
    15
100
AcDbLine
 10
8.005109319781652
 20
6.966086502992553
 30
0.0
 11
7.960948000048986
 21
6.962299462282103
 31
0.0
  0
LINE
  5
40B
330
1F
100
AcDbEntity
  8
Default
 48
0.5
370
    15
100
AcDbLine
 10
7.960948000048986
 20
6.962299462282103
 30
0.0
 11
7.961471090411535
 21
6.954337473833007
 31
0.0
  0
LINE
  5
40C
330
1F
100
AcDbEntity
  8
Default
 48
0.5
370
    15
100
AcDbLine
 10
7.961471090411535
 20
6.954337473833007
 30
0.0
 11
7.963998327350012
 21
6.954554434739989
 31
0.0
  0
LINE
  5
40D
330
1F
100
AcDbEntity
  8
0
 60
     1
100
AcDbLine
 10
7.963998327350012
 20
6.954554434739989
 30
0.0
 11
7.991279134845129
 21
6.956855412446898
 31
0.0
  0
LINE
  5
40E
330
1F
100
AcDbEntity
  8
Default
 48
0.5
370
    15
100
AcDbLine
 10
7.960948000048986
 20
6.962299462282103
 30
0.0
 11
7.956827173327795
 21
6.953937407457274
 31
0.0
  0
LINE
  5
40F
330
1F
100
AcDbEntity
  8
Default
 48
0.5
370
    15
100
AcDbLine
 10
7.956827173327795
 20
6.953937407457274
 30
0.0
 11
7.961471090411535
 21
6.954337473833007
 31
0.0
  0
LINE
  5
410
330
1F
100
AcDbEntity
  8
0
 60
     1
100
AcDbLine
 10
7.961471090411535
 20
6.954337473833007
 30
0.0
 11
7.960948000048986
 21
6.962299462282103
 31
0.0
  0
LINE
  5
411
330
1F
100
AcDbEntity
  8
Default
 48
0.5
370
    15
100
AcDbLine
 10
8.646853933429113
 20
7.02113043876831
 30
0.0
 11
8.659005174731603
 21
7.022172566377562
 31
0.0
  0
LINE
  5
412
330
1F
100
AcDbEntity
  8
Default
 48
0.5
370
    15
100
AcDbLine
 10
8.659005174731603
 20
7.022172566377562
 30
0.0
 11
8.688304910754553
 21
7.024685498201293
 31
0.0
  0
LINE
  5
413
330
1F
100
AcDbEntity
  8
Default
 48
0.5
370
    15
100
AcDbLine
 10
8.688304910754553
 20
7.024685498201293
 30
0.0
 11
8.691689977740637
 21
7.017186518632811
 31
0.0
  0
LINE
  5
414
330
1F
100
AcDbEntity
  8
Default
 48
0.5
370
    15
100
AcDbLine
 10
8.691689977740637
 20
7.017186518632811
 30
0.0
 11
8.65022231111466
 21
7.013614531480712
 31
0.0
  0
LINE
  5
415
330
1F
100
AcDbEntity
  8
Default
 48
0.5
370
    15
100
AcDbLine
 10
8.65022231111466
 20
7.013614531480712
 30
0.0
 11
8.647141943072668
 21
7.013349410020751
 31
0.0
  0
LINE
  5
416
330
1F
100
AcDbEntity
  8
Default
 48
0.5
370
    15
100
AcDbLine
 10
8.647141943072668
 20
7.013349410020751
 30
0.0
 11
8.641479978656164
 21
7.012861605607909
 31
0.0
  0
LINE
  5
417
330
1F
100
AcDbEntity
  8
Default
 48
0.5
370
    15
100
AcDbLine
 10
8.641479978656164
 20
7.012861605607909
 30
0.0
 11
8.008197317218176
 21
6.958312388383788
 31
0.0
  0
LINE
  5
418
330
1F
100
AcDbEntity
  8
0
 60
     1
100
AcDbLine
 10
8.008197317218176
 20
6.958312388383788
 30
0.0
 11
8.646853933429113
 21
7.02113043876831
 31
0.0
  0
LINE
  5
419
330
1F
100
AcDbEntity
  8
Default
 48
0.5
370
    15
100
AcDbLine
 10
8.647141943072668
 20
7.013349410020751
 30
0.0
 11
8.646853933429113
 21
7.02113043876831
 31
0.0
  0
LINE
  5
41A
330
1F
100
AcDbEntity
  8
Default
 48
0.5
370
    15
100
AcDbLine
 10
8.646853933429113
 20
7.02113043876831
 30
0.0
 11
8.641479978656164
 21
7.012861605607909
 31
0.0
  0
LINE
  5
41B
330
1F
100
AcDbEntity
  8
0
 60
     1
100
AcDbLine
 10
8.641479978656164
 20
7.012861605607909
 30
0.0
 11
8.647141943072668
 21
7.013349410020751
 31
0.0
  0
LINE
  5
41C
330
1F
100
AcDbEntity
  8
Default
 48
0.5
370
    15
100
AcDbLine
 10
9.897745142077795
 20
7.121072407686156
 30
0.0
 11
9.897854337787023
 21
7.128429528200072
 31
0.0
  0
LINE
  5
41D
330
1F
100
AcDbEntity
  8
Default
 48
0.5
370
    15
100
AcDbLine
 10
9.897854337787023
 20
7.128429528200072
 30
0.0
 11
9.93458510408341
 21
7.131579514467162
 31
0.0
  0
LINE
  5
41E
330
1F
100
AcDbEntity
  8
Default
 48
0.5
370
    15
100
AcDbLine
 10
9.93458510408341
 20
7.131579514467162
 30
0.0
 11
9.938447008227697
 21
7.124578591310424
 31
0.0
  0
LINE
  5
41F
330
1F
100
AcDbEntity
  8
Default
 48
0.5
370
    15
100
AcDbLine
 10
9.938447008227697
 20
7.124578591310424
 30
0.0
 11
9.901703367328039
 21
7.121413584672851
 31
0.0
  0
LINE
  5
420
330
1F
100
AcDbEntity
  8
Default
 48
0.5
370
    15
100
AcDbLine
 10
9.901703367328039
 20
7.121413584672851
 30
0.0
 11
9.897745142077795
 21
7.121072407686156
 31
0.0
  0
LINE
  5
421
330
1F
100
AcDbEntity
  8
Default
 48
0.5
370
    15
100
AcDbLine
 10
9.897745142077795
 20
7.121072407686156
 30
0.0
 11
9.890467176532141
 21
7.120445605241698
 31
0.0
  0
LINE
  5
422
330
1F
100
AcDbEntity
  8
Default
 48
0.5
370
    15
100
AcDbLine
 10
9.890467176532141
 20
7.120445605241698
 30
0.0
 11
9.333896169757238
 21
7.072504397355956
 31
0.0
  0
LINE
  5
423
330
1F
100
AcDbEntity
  8
Default
 48
0.5
370
    15
100
AcDbLine
 10
9.333896169757238
 20
7.072504397355956
 30
0.0
 11
9.294897089099279
 21
7.069145556413573
 31
0.0
  0
LINE
  5
424
330
1F
100
AcDbEntity
  8
Default
 48
0.5
370
    15
100
AcDbLine
 10
9.294897089099279
 20
7.069145556413573
 30
0.0
 11
9.29134894380509
 21
7.068839426958007
 31
0.0
  0
LINE
  5
425
330
1F
100
AcDbEntity
  8
Default
 48
0.5
370
    15
100
AcDbLine
 10
9.29134894380509
 20
7.068839426958007
 30
0.0
 11
9.284824380969396
 21
7.068277474367064
 31
0.0
  0
LINE
  5
426
330
1F
100
AcDbEntity
  8
Default
 48
0.5
370
    15
100
AcDbLine
 10
9.284824380969396
 20
7.068277474367064
 30
0.0
 11
8.691689977740637
 21
7.017186518632811
 31
0.0
  0
LINE
  5
427
330
1F
100
AcDbEntity
  8
0
 60
     1
100
AcDbLine
 10
8.691689977740637
 20
7.017186518632811
 30
0.0
 11
9.897745142077795
 21
7.121072407686156
 31
0.0
  0
LINE
  5
428
330
1F
100
AcDbEntity
  8
Default
 48
0.5
370
    15
100
AcDbLine
 10
9.890467176532141
 20
7.120445605241698
 30
0.0
 11
9.897854337787023
 21
7.128429528200072
 31
0.0
  0
LINE
  5
429
330
1F
100
AcDbEntity
  8
0
 60
     1
100
AcDbLine
 10
9.897854337787023
 20
7.128429528200072
 30
0.0
 11
9.890467176532141
 21
7.120445605241698
 31
0.0
  0
LINE
  5
42A
330
1F
100
AcDbEntity
  8
Default
 48
0.5
370
    15
100
AcDbLine
 10
10.49991036424576
 20
7.172986384355468
 30
0.0
 11
10.50853301057755
 21
7.173729535066527
 31
0.0
  0
LINE
  5
42B
330
1F
100
AcDbEntity
  8
Default
 48
0.5
370
    15
100
AcDbLine
 10
10.50853301057755
 20
7.173729535066527
 30
0.0
 11
10.50450707445084
 21
7.180462475740355
 31
0.0
  0
LINE
  5
42C
330
1F
100
AcDbEntity
  8
Default
 48
0.5
370
    15
100
AcDbLine
 10
10.50450707445084
 20
7.180462475740355
 30
0.0
 11
10.46983910570084
 21
7.177489396058959
 31
0.0
  0
LINE
  5
42D
330
1F
100
AcDbEntity
  8
Default
 48
0.5
370
    15
100
AcDbLine
 10
10.46983910570084
 20
7.177489396058959
 30
0.0
 11
10.46956397066056
 21
7.170327540361327
 31
0.0
  0
LINE
  5
42E
330
1F
100
AcDbEntity
  8
Default
 48
0.5
370
    15
100
AcDbLine
 10
10.46956397066056
 20
7.170327540361327
 30
0.0
 11
10.47388030061661
 21
7.170699473344726
 31
0.0
  0
LINE
  5
42F
330
1F
100
AcDbEntity
  8
0
 60
     1
100
AcDbLine
 10
10.47388030061661
 20
7.170699473344726
 30
0.0
 11
10.49991036424576
 21
7.172986384355468
 31
0.0
  0
LINE
  5
430
330
1F
100
AcDbEntity
  8
Default
 48
0.5
370
    15
100
AcDbLine
 10
10.46162796983658
 20
7.169644471132201
 30
0.0
 11
10.46983910570084
 21
7.177489396058959
 31
0.0
  0
LINE
  5
431
330
1F
100
AcDbEntity
  8
0
 60
     1
100
AcDbLine
 10
10.46983910570084
 20
7.177489396058959
 30
0.0
 11
10.46162796983658
 21
7.169644471132201
 31
0.0
  0
LINE
  5
432
330
1F
100
AcDbEntity
  8
Default
 48
0.5
370
    15
100
AcDbLine
 10
11.01010514268814
 20
7.223828431093139
 30
0.0
 11
11.01362610826432
 21
7.22413050743286
 31
0.0
  0
LINE
  5
433
330
1F
100
AcDbEntity
  8
Default
 48
0.5
370
    15
100
AcDbLine
 10
11.01362610826432
 20
7.22413050743286
 30
0.0
 11
11.04287911424576
 21
7.226639386140746
 31
0.0
  0
LINE
  5
434
330
1F
100
AcDbEntity
  8
Default
 48
0.5
370
    15
100
AcDbLine
 10
11.04287911424576
 20
7.226639386140746
 30
0.0
 11
11.04706717500626
 21
7.22011553856079
 31
0.0
  0
LINE
  5
435
330
1F
100
AcDbEntity
  8
Default
 48
0.5
370
    15
100
AcDbLine
 10
11.04706717500626
 20
7.22011553856079
 30
0.0
 11
11.01428414354264
 21
7.217291470491332
 31
0.0
  0
LINE
  5
436
330
1F
100
AcDbEntity
  8
Default
 48
0.5
370
    15
100
AcDbLine
 10
11.01428414354264
 20
7.217291470491332
 30
0.0
 11
11.00968504915177
 21
7.216895457231444
 31
0.0
  0
LINE
  5
437
330
1F
100
AcDbEntity
  8
Default
 48
0.5
370
    15
100
AcDbLine
 10
11.00968504915177
 20
7.216895457231444
 30
0.0
 11
11.00122691163956
 21
7.216167565309447
 31
0.0
  0
LINE
  5
438
330
1F
100
AcDbEntity
  8
Default
 48
0.5
370
    15
100
AcDbLine
 10
11.00122691163956
 20
7.216167565309447
 30
0.0
 11
10.50853301057755
 21
7.173729535066527
 31
0.0
  0
LINE
  5
439
330
1F
100
AcDbEntity
  8
0
 60
     1
100
AcDbLine
 10
10.50853301057755
 20
7.173729535066527
 30
0.0
 11
11.01010514268814
 21
7.223828431093139
 31
0.0
  0
LINE
  5
43A
330
1F
100
AcDbEntity
  8
Default
 48
0.5
370
    15
100
AcDbLine
 10
11.00968504915177
 20
7.216895457231444
 30
0.0
 11
11.01010514268814
 21
7.223828431093139
 31
0.0
  0
LINE
  5
43B
330
1F
100
AcDbEntity
  8
Default
 48
0.5
370
    15
100
AcDbLine
 10
11.01010514268814
 20
7.223828431093139
 30
0.0
 11
11.00122691163956
 21
7.216167565309447
 31
0.0
  0
LINE
  5
43C
330
1F
100
AcDbEntity
  8
0
 60
     1
100
AcDbLine
 10
11.00122691163956
 20
7.216167565309447
 30
0.0
 11
11.00968504915177
 21
7.216895457231444
 31
0.0
  0
LINE
  5
43D
330
1F
100
AcDbEntity
  8
Default
 48
0.5
370
    15
100
AcDbLine
 10
11.4961748219484
 20
7.258799429857177
 30
0.0
 11
11.50566483507096
 21
7.26633250328247
 31
0.0
  0
LINE
  5
43E
330
1F
100
AcDbEntity
  8
Default
 48
0.5
370
    15
100
AcDbLine
 10
11.50566483507096
 20
7.26633250328247
 30
0.0
 11
11.53674698839127
 21
7.268998499833983
 31
0.0
  0
LINE
  5
43F
330
1F
100
AcDbEntity
  8
Default
 48
0.5
370
    15
100
AcDbLine
 10
11.53674698839127
 20
7.268998499833983
 30
0.0
 11
11.54106999406754
 21
7.262666579210204
 31
0.0
  0
LINE
  5
440
330
1F
100
AcDbEntity
  8
Default
 48
0.5
370
    15
100
AcDbLine
 10
11.54106999406754
 20
7.262666579210204
 30
0.0
 11
11.50997925767838
 21
7.259988423311156
 31
0.0
  0
LINE
  5
441
330
1F
100
AcDbEntity
  8
0
 60
     1
100
AcDbLine
 10
11.50997925767838
 20
7.259988423311156
 30
0.0
 11
11.4961748219484
 21
7.258799429857177
 31
0.0
  0
LINE
  5
442
330
1F
100
AcDbEntity
  8
Default
 48
0.5
370
    15
100
AcDbLine
 10
11.98068619737564
 20
7.300532456361693
 30
0.0
 11
11.99073029527603
 21
7.307937499010009
 31
0.0
  0
LINE
  5
443
330
1F
100
AcDbEntity
  8
Default
 48
0.5
370
    15
100
AcDbLine
 10
11.99073029527603
 20
7.307937499010009
 30
0.0
 11
11.9900655842775
 21
7.301340456926268
 31
0.0
  0
LINE
  5
444
330
1F
100
AcDbEntity
  8
Default
 48
0.5
370
    15
100
AcDbLine
 10
11.9900655842775
 20
7.301340456926268
 30
0.0
 11
11.98068619737564
 21
7.300532456361693
 31
0.0
  0
LINE
  5
445
330
1F
100
AcDbEntity
  8
Default
 48
0.5
370
    15
100
AcDbLine
 10
11.98068619737564
 20
7.300532456361693
 30
0.0
 11
11.54106999406754
 21
7.262666579210204
 31
0.0
  0
LINE
  5
446
330
1F
100
AcDbEntity
  8
0
 60
     1
100
AcDbLine
 10
11.54106999406754
 20
7.262666579210204
 30
0.0
 11
11.98068619737564
 21
7.300532456361693
 31
0.0
  0
LINE
  5
447
330
1F
100
AcDbEntity
  8
Default
 48
0.5
370
    15
100
AcDbLine
 10
11.99073029527603
 20
7.307937499010009
 30
0.0
 11
12.00590516099869
 21
7.309238549196166
 31
0.0
  0
LINE
  5
448
330
1F
100
AcDbEntity
  8
Default
 48
0.5
370
    15
100
AcDbLine
 10
12.00590516099869
 20
7.309238549196166
 30
0.0
 11
12.02020073900162
 21
7.310464497529906
 31
0.0
  0
LINE
  5
449
330
1F
100
AcDbEntity
  8
Default
 48
0.5
370
    15
100
AcDbLine
 10
12.02020073900162
 20
7.310464497529906
 30
0.0
 11
12.02464295396744
 21
7.304319497072143
 31
0.0
  0
LINE
  5
44A
330
1F
100
AcDbEntity
  8
Default
 48
0.5
370
    15
100
AcDbLine
 10
12.02464295396744
 20
7.304319497072143
 30
0.0
 11
12.03499127397477
 21
7.305210467302245
 31
0.0
  0
LINE
  5
44B
330
1F
100
AcDbEntity
  8
0
 60
     1
100
AcDbLine
 10
12.03499127397477
 20
7.305210467302245
 30
0.0
 11
11.99073029527603
 21
7.307937499010009
 31
0.0
  0
LINE
  5
44C
330
1F
100
AcDbEntity
  8
Default
 48
0.5
370
    15
100
AcDbLine
 10
6.319102058505407
 20
5.705604430162352
 30
0.0
 11
6.336193094348303
 21
5.584797497713012
 31
0.0
  0
LINE
  5
44D
330
1F
100
AcDbEntity
  8
Default
 48
0.5
370
    15
100
AcDbLine
 10
6.336193094348303
 20
5.584797497713012
 30
0.0
 11
6.340994129275671
 21
5.574337597810668
 31
0.0
  0
LINE
  5
44E
330
1F
100
AcDbEntity
  8
Default
 48
0.5
370
    15
100
AcDbLine
 10
6.340994129275671
 20
5.574337597810668
 30
0.0
 11
6.777356157397619
 21
5.634845610582274
 31
0.0
  0
LINE
  5
44F
330
1F
100
AcDbEntity
  8
Default
 48
0.5
370
    15
100
AcDbLine
 10
6.777356157397619
 20
5.634845610582274
 30
0.0
 11
7.455780038928381
 21
3.172050591432494
 31
0.0
  0
LINE
  5
450
330
1F
100
AcDbEntity
  8
0
 60
     1
100
AcDbLine
 10
7.455780038928381
 20
3.172050591432494
 30
0.0
 11
6.319102058505407
 21
5.705604430162352
 31
0.0
  0
LINE
  5
451
330
1F
100
AcDbEntity
  8
Default
 48
0.5
370
    15
100
AcDbLine
 10
6.317222128009191
 20
5.715220566713256
 30
0.0
 11
6.319117078875891
 21
5.705606575929564
 31
0.0
  0
LINE
  5
452
330
1F
100
AcDbEntity
  8
Default
 48
0.5
370
    15
100
AcDbLine
 10
6.319117078875891
 20
5.705606575929564
 30
0.0
 11
6.319128046130529
 21
5.705550547563476
 31
0.0
  0
LINE
  5
453
330
1F
100
AcDbEntity
  8
Default
 48
0.5
370
    15
100
AcDbLine
 10
6.319128046130529
 20
5.705550547563476
 30
0.0
 11
6.32238913545548
 21
5.705983515703124
 31
0.0
  0
LINE
  5
454
330
1F
100
AcDbEntity
  8
Default
 48
0.5
370
    15
100
AcDbLine
 10
6.32238913545548
 20
5.705983515703124
 30
0.0
 11
6.320758113955847
 21
5.717527504884643
 31
0.0
  0
LINE
  5
455
330
1F
100
AcDbEntity
  8
0
 60
     1
100
AcDbLine
 10
6.320758113955847
 20
5.717527504884643
 30
0.0
 11
6.317222128009191
 21
5.715220566713256
 31
0.0
  0
LINE
  5
456
330
1F
100
AcDbEntity
  8
Default
 48
0.5
370
    15
100
AcDbLine
 10
6.319102058505407
 20
5.705604430162352
 30
0.0
 11
6.319117078875891
 21
5.705606575929564
 31
0.0
  0
LINE
  5
457
330
1F
100
AcDbEntity
  8
0
 60
     1
100
AcDbLine
 10
6.319117078875891
 20
5.705606575929564
 30
0.0
 11
6.319102058505407
 21
5.705604430162352
 31
0.0
  0
LINE
  5
458
330
1F
100
AcDbEntity
  8
Default
 48
0.5
370
    15
100
AcDbLine
 10
12.11698151597916
 20
4.446415539705199
 30
0.0
 11
12.11701012620865
 21
4.446366425477904
 31
0.0
  0
LINE
  5
459
330
1F
100
AcDbEntity
  8
Default
 48
0.5
370
    15
100
AcDbLine
 10
12.11701012620865
 20
4.446366425477904
 30
0.0
 11
13.79164792070328
 21
4.85966837021057
 31
0.0
  0
LINE
  5
45A
330
1F
100
AcDbEntity
  8
Default
 48
0.5
370
    15
100
AcDbLine
 10
13.79164792070328
 20
4.85966837021057
 30
0.0
 11
13.76303769121109
 21
4.712257500612182
 31
0.0
  0
LINE
  5
45B
330
1F
100
AcDbEntity
  8
Default
 48
0.5
370
    15
100
AcDbLine
 10
13.76303769121109
 20
4.712257500612182
 30
0.0
 11
7.47405100831925
 21
3.105608578645629
 31
0.0
  0
LINE
  5
45C
330
1F
100
AcDbEntity
  8
Default
 48
0.5
370
    15
100
AcDbLine
 10
7.47405100831925
 20
3.105608578645629
 30
0.0
 11
7.459317216967932
 21
3.137711640321654
 31
0.0
  0
LINE
  5
45D
330
1F
100
AcDbEntity
  8
Default
 48
0.5
370
    15
100
AcDbLine
 10
7.459317216967932
 20
3.137711640321654
 30
0.0
 11
7.455780038928381
 21
3.172050591432494
 31
0.0
  0
LINE
  5
45E
330
1F
100
AcDbEntity
  8
Default
 48
0.5
370
    15
100
AcDbLine
 10
7.455780038928381
 20
3.172050591432494
 30
0.0
 11
7.439821252917639
 21
3.327000256502074
 31
0.0
  0
LINE
  5
45F
330
1F
100
AcDbEntity
  8
0
 60
     1
100
AcDbLine
 10
7.439821252917639
 20
3.327000256502074
 30
0.0
 11
12.11698151597916
 21
4.446415539705199
 31
0.0
  0
LINE
  5
460
330
1F
100
AcDbEntity
  8
Default
 48
0.5
370
    15
100
AcDbLine
 10
7.010951051806799
 20
4.894857521974486
 30
0.0
 11
7.01133013734757
 21
4.903976555787963
 31
0.0
  0
LINE
  5
461
330
1F
100
AcDbEntity
  8
Default
 48
0.5
370
    15
100
AcDbLine
 10
7.01133013734757
 20
4.903976555787963
 30
0.0
 11
7.012286195849767
 21
4.904140587770385
 31
0.0
  0
LINE
  5
462
330
1F
100
AcDbEntity
  8
0
 60
     1
100
AcDbLine
 10
7.012286195849767
 20
4.904140587770385
 30
0.0
 11
7.010951051806799
 21
4.894857521974486
 31
0.0
  0
LINE
  5
463
330
1F
100
AcDbEntity
  8
Default
 48
0.5
370
    15
100
AcDbLine
 10
8.761647234057775
 20
6.463746424638671
 30
0.0
 11
8.211003313159338
 21
6.401779528581542
 31
0.0
  0
LINE
  5
464
330
1F
100
AcDbEntity
  8
Default
 48
0.5
370
    15
100
AcDbLine
 10
8.211003313159338
 20
6.401779528581542
 30
0.0
 11
6.644448051547399
 21
6.225485440217894
 31
0.0
  0
LINE
  5
465
330
1F
100
AcDbEntity
  8
Default
 48
0.5
370
    15
100
AcDbLine
 10
6.644448051547399
 20
6.225485440217894
 30
0.0
 11
6.644571075534216
 21
6.215477581941527
 31
0.0
  0
LINE
  5
466
330
1F
100
AcDbEntity
  8
Default
 48
0.5
370
    15
100
AcDbLine
 10
6.644571075534216
 20
6.215477581941527
 30
0.0
 11
6.47792006502091
 21
6.81621944519226
 31
0.0
  0
LINE
  5
467
330
1F
100
AcDbEntity
  8
Default
 48
0.5
370
    15
100
AcDbLine
 10
6.47792006502091
 20
6.81621944519226
 30
0.0
 11
6.477600107287756
 21
6.826524611436767
 31
0.0
  0
LINE
  5
468
330
1F
100
AcDbEntity
  8
Default
 48
0.5
370
    15
100
AcDbLine
 10
6.477600107287756
 20
6.826524611436767
 30
0.0
 11
6.525465259646765
 21
6.83064758392517
 31
0.0
  0
LINE
  5
469
330
1F
100
AcDbEntity
  8
Default
 48
0.5
370
    15
100
AcDbLine
 10
6.525465259646765
 20
6.83064758392517
 30
0.0
 11
7.250239143466345
 21
6.893075581514281
 31
0.0
  0
LINE
  5
46A
330
1F
100
AcDbEntity
  8
Default
 48
0.5
370
    15
100
AcDbLine
 10
7.250239143466345
 20
6.893075581514281
 30
0.0
 11
7.253793249225012
 21
6.893381472551268
 31
0.0
  0
LINE
  5
46B
330
1F
100
AcDbEntity
  8
Default
 48
0.5
370
    15
100
AcDbLine
 10
7.253793249225012
 20
6.893381472551268
 30
0.0
 11
7.255727062320104
 21
6.893548603975219
 31
0.0
  0
LINE
  5
46C
330
1F
100
AcDbEntity
  8
Default
 48
0.5
370
    15
100
AcDbLine
 10
7.255727062320104
 20
6.893548603975219
 30
0.0
 11
7.302796135043493
 21
6.897602435075683
 31
0.0
  0
LINE
  5
46D
330
1F
100
AcDbEntity
  8
Default
 48
0.5
370
    15
100
AcDbLine
 10
7.302796135043493
 20
6.897602435075683
 30
0.0
 11
7.956827173327795
 21
6.953937407457274
 31
0.0
  0
LINE
  5
46E
330
1F
100
AcDbEntity
  8
0
 60
     1
100
AcDbLine
 10
7.956827173327795
 20
6.953937407457274
 30
0.0
 11
8.761647234057775
 21
6.463746424638671
 31
0.0
  0
LINE
  5
46F
330
1F
100
AcDbEntity
  8
Default
 48
0.5
370
    15
100
AcDbLine
 10
10.73216725358902
 20
6.783984538041991
 30
0.0
 11
10.49989033708512
 21
7.172939415895385
 31
0.0
  0
LINE
  5
470
330
1F
100
AcDbEntity
  8
Default
 48
0.5
370
    15
100
AcDbLine
 10
10.49989033708512
 20
7.172939415895385
 30
0.0
 11
10.49991036424576
 21
7.172986384355468
 31
0.0
  0
LINE
  5
471
330
1F
100
AcDbEntity
  8
0
 60
     1
100
AcDbLine
 10
10.49991036424576
 20
7.172986384355468
 30
0.0
 11
10.73216725358902
 21
6.783984538041991
 31
0.0
  0
LINE
  5
472
330
1F
100
AcDbEntity
  8
Default
 48
0.5
370
    15
100
AcDbLine
 10
12.29098702440201
 20
6.951420422517699
 30
0.0
 11
12.03499127397477
 21
7.305210467302245
 31
0.0
  0
LINE
  5
473
330
1F
100
AcDbEntity
  8
0
 60
     1
100
AcDbLine
 10
12.03499127397477
 20
7.305210467302245
 30
0.0
 11
12.29098702440201
 21
6.951420422517699
 31
0.0
  0
LINE
  5
474
330
1F
100
AcDbEntity
  8
Default
 48
0.5
370
    15
100
AcDbLine
 10
11.01284123430191
 20
7.226564522706908
 30
0.0
 11
11.01291419038712
 21
7.226626511537475
 31
0.0
  0
LINE
  5
475
330
1F
100
AcDbEntity
  8
Default
 48
0.5
370
    15
100
AcDbLine
 10
11.01291419038712
 20
7.226626511537475
 30
0.0
 11
12.00518895158707
 21
7.311601515733642
 31
0.0
  0
LINE
  5
476
330
1F
100
AcDbEntity
  8
Default
 48
0.5
370
    15
100
AcDbLine
 10
12.00518895158707
 20
7.311601515733642
 30
0.0
 11
12.00590516099869
 21
7.309238549196166
 31
0.0
  0
LINE
  5
477
330
1F
100
AcDbEntity
  8
0
 60
     1
100
AcDbLine
 10
12.00590516099869
 20
7.309238549196166
 30
0.0
 11
11.01284123430191
 21
7.226564522706908
 31
0.0
  0
LINE
  5
478
330
1F
100
AcDbEntity
  8
Default
 48
0.5
370
    15
100
AcDbLine
 10
11.01362610826432
 20
7.22413050743286
 30
0.0
 11
11.01292897233902
 21
7.226571436845702
 31
0.0
  0
LINE
  5
479
330
1F
100
AcDbEntity
  8
Default
 48
0.5
370
    15
100
AcDbLine
 10
11.01292897233902
 20
7.226571436845702
 30
0.0
 11
11.01284123430191
 21
7.226564522706908
 31
0.0
  0
LINE
  5
47A
330
1F
100
AcDbEntity
  8
Default
 48
0.5
370
    15
100
AcDbLine
 10
11.01284123430191
 20
7.226564522706908
 30
0.0
 11
8.658336172198644
 21
7.024927493059081
 31
0.0
  0
LINE
  5
47B
330
1F
100
AcDbEntity
  8
Default
 48
0.5
370
    15
100
AcDbLine
 10
8.658336172198644
 20
7.024927493059081
 30
0.0
 11
8.658320913409582
 21
7.024989481889647
 31
0.0
  0
LINE
  5
47C
330
1F
100
AcDbEntity
  8
0
 60
     1
100
AcDbLine
 10
8.658320913409582
 20
7.024989481889647
 30
0.0
 11
11.01362610826432
 21
7.22413050743286
 31
0.0
  0
LINE
  5
47D
330
1F
100
AcDbEntity
  8
Default
 48
0.5
370
    15
100
AcDbLine
 10
8.659005174731603
 20
7.022172566377562
 30
0.0
 11
8.658336172198644
 21
7.024927493059081
 31
0.0
  0
LINE
  5
47E
330
1F
100
AcDbEntity
  8
0
 60
     1
100
AcDbLine
 10
8.658336172198644
 20
7.024927493059081
 30
0.0
 11
8.659005174731603
 21
7.022172566377562
 31
0.0
  0
LINE
  5
47F
330
1F
100
AcDbEntity
  8
Default
 48
0.5
370
    15
100
AcDbLine
 10
8.658320913409582
 20
7.024989481889647
 30
0.0
 11
6.46871710786759
 21
6.837481375657958
 31
0.0
  0
LINE
  5
480
330
1F
100
AcDbEntity
  8
Default
 48
0.5
370
    15
100
AcDbLine
 10
6.46871710786759
 20
6.837481375657958
 30
0.0
 11
6.428473243808142
 21
6.539294596635741
 31
0.0
  0
LINE
  5
481
330
1F
100
AcDbEntity
  8
Default
 48
0.5
370
    15
100
AcDbLine
 10
6.428473243808142
 20
6.539294596635741
 30
0.0
 11
6.428456077670446
 21
6.539168473207396
 31
0.0
  0
LINE
  5
482
330
1F
100
AcDbEntity
  8
Default
 48
0.5
370
    15
100
AcDbLine
 10
6.428456077670446
 20
6.539168473207396
 30
0.0
 11
6.430907259082189
 21
6.527030583345336
 31
0.0
  0
LINE
  5
483
330
1F
100
AcDbEntity
  8
Default
 48
0.5
370
    15
100
AcDbLine
 10
6.430907259082189
 20
6.527030583345336
 30
0.0
 11
6.36799312601029
 21
6.064937468492431
 31
0.0
  0
LINE
  5
484
330
1F
100
AcDbEntity
  8
0
 60
     1
100
AcDbLine
 10
6.36799312601029
 20
6.064937468492431
 30
0.0
 11
8.658320913409582
 21
7.024989481889647
 31
0.0
  0
LINE
  5
485
330
1F
100
AcDbEntity
  8
Default
 48
0.5
370
    15
100
AcDbLine
 10
13.79164792070328
 20
4.85966837021057
 30
0.0
 11
13.79946805009781
 21
4.866868611299437
 31
0.0
  0
LINE
  5
486
330
1F
100
AcDbEntity
  8
Default
 48
0.5
370
    15
100
AcDbLine
 10
13.79946805009781
 20
4.866868611299437
 30
0.0
 11
12.12359238634049
 21
4.453805561983031
 31
0.0
  0
LINE
  5
487
330
1F
100
AcDbEntity
  8
Default
 48
0.5
370
    15
100
AcDbLine
 10
12.12359238634049
 20
4.453805561983031
 30
0.0
 11
12.1170768834108
 21
4.446438427888793
 31
0.0
  0
LINE
  5
488
330
1F
100
AcDbEntity
  8
Default
 48
0.5
370
    15
100
AcDbLine
 10
12.1170768834108
 20
4.446438427888793
 30
0.0
 11
12.11698151597916
 21
4.446415539705199
 31
0.0
  0
LINE
  5
489
330
1F
100
AcDbEntity
  8
Default
 48
0.5
370
    15
100
AcDbLine
 10
12.11698151597916
 20
4.446415539705199
 30
0.0
 11
9.25787497529923
 21
3.74079048248474
 31
0.0
  0
LINE
  5
48A
330
1F
100
AcDbEntity
  8
0
 60
     1
100
AcDbLine
 10
9.25787497529923
 20
3.74079048248474
 30
0.0
 11
13.79164792070328
 21
4.85966837021057
 31
0.0
  0
LINE
  5
48B
330
1F
100
AcDbEntity
  8
Default
 48
0.5
370
    15
100
AcDbLine
 10
6.317222128009191
 20
5.715220566713256
 30
0.0
 11
6.365861187075964
 21
6.075638409578246
 31
0.0
  0
LINE
  5
48C
330
1F
100
AcDbEntity
  8
Default
 48
0.5
370
    15
100
AcDbLine
 10
6.365861187075964
 20
6.075638409578246
 30
0.0
 11
6.428431043719641
 21
6.539291497194213
 31
0.0
  0
LINE
  5
48D
330
1F
100
AcDbEntity
  8
Default
 48
0.5
370
    15
100
AcDbLine
 10
6.428431043719641
 20
6.539291497194213
 30
0.0
 11
6.428473243808142
 21
6.539294596635741
 31
0.0
  0
LINE
  5
48E
330
1F
100
AcDbEntity
  8
0
 60
     1
100
AcDbLine
 10
6.428473243808142
 20
6.539294596635741
 30
0.0
 11
6.317222128009191
 21
5.715220566713256
 31
0.0
  0
LINE
  5
48F
330
1F
100
AcDbEntity
  8
Default
 48
0.5
370
    15
100
AcDbLine
 10
6.525465259646765
 20
6.83064758392517
 30
0.0
 11
6.523122081851354
 21
6.838976498567504
 31
0.0
  0
LINE
  5
490
330
1F
100
AcDbEntity
  8
Default
 48
0.5
370
    15
100
AcDbLine
 10
6.523122081851354
 20
6.838976498567504
 30
0.0
 11
6.472791204547277
 21
6.834658499681395
 31
0.0
  0
LINE
  5
491
330
1F
100
AcDbEntity
  8
Default
 48
0.5
370
    15
100
AcDbLine
 10
6.472791204547277
 20
6.834658499681395
 30
0.0
 11
6.495428094958654
 21
6.658290501558226
 31
0.0
  0
LINE
  5
492
330
1F
100
AcDbEntity
  8
Default
 48
0.5
370
    15
100
AcDbLine
 10
6.495428094958654
 20
6.658290501558226
 30
0.0
 11
6.526438245868078
 21
6.545718546831054
 31
0.0
  0
LINE
  5
493
330
1F
100
AcDbEntity
  8
Default
 48
0.5
370
    15
100
AcDbLine
 10
6.526438245868078
 20
6.545718546831054
 30
0.0
 11
6.766912231540075
 21
5.672758456193847
 31
0.0
  0
LINE
  5
494
330
1F
100
AcDbEntity
  8
Default
 48
0.5
370
    15
100
AcDbLine
 10
6.766912231540075
 20
5.672758456193847
 30
0.0
 11
6.777356157397619
 21
5.634845610582274
 31
0.0
  0
LINE
  5
495
330
1F
100
AcDbEntity
  8
0
 60
     1
100
AcDbLine
 10
6.777356157397619
 20
5.634845610582274
 30
0.0
 11
6.525465259646765
 21
6.83064758392517
 31
0.0
  0
LINE
  5
496
330
1F
100
AcDbEntity
  8
Default
 48
0.5
370
    15
100
AcDbLine
 10
6.377076158618322
 20
5.619363423311156
 30
0.0
 11
6.766912231540075
 21
5.672758456193847
 31
0.0
  0
LINE
  5
497
330
1F
100
AcDbEntity
  8
0
 60
     1
100
AcDbLine
 10
6.766912231540075
 20
5.672758456193847
 30
0.0
 11
6.377076158618322
 21
5.619363423311156
 31
0.0
  0
LINE
  5
498
330
1F
100
AcDbEntity
  8
Default
 48
0.5
370
    15
100
AcDbLine
 10
7.302796135043493
 20
6.897602435075683
 30
0.0
 11
7.300057182406774
 21
6.905614491426391
 31
0.0
  0
LINE
  5
499
330
1F
100
AcDbEntity
  8
Default
 48
0.5
370
    15
100
AcDbLine
 10
7.300057182406774
 20
6.905614491426391
 30
0.0
 11
7.253011236285558
 21
6.901579495393676
 31
0.0
  0
LINE
  5
49A
330
1F
100
AcDbEntity
  8
Default
 48
0.5
370
    15
100
AcDbLine
 10
7.253011236285558
 20
6.901579495393676
 30
0.0
 11
7.250239143466345
 21
6.893075581514281
 31
0.0
  0
LINE
  5
49B
330
1F
100
AcDbEntity
  8
0
 60
     1
100
AcDbLine
 10
7.250239143466345
 20
6.893075581514281
 30
0.0
 11
7.302796135043493
 21
6.897602435075683
 31
0.0
  0
LINE
  5
49C
330
1F
100
AcDbEntity
  8
Default
 48
0.5
370
    15
100
AcDbLine
 10
7.455686102008215
 20
3.303279515230101
 30
0.0
 11
9.26141501436173
 21
3.74834835144226
 31
0.0
  0
LINE
  5
49D
330
1F
100
AcDbEntity
  8
Default
 48
0.5
370
    15
100
AcDbLine
 10
9.26141501436173
 20
3.74834835144226
 30
0.0
 11
9.25787497529923
 21
3.74079048248474
 31
0.0
  0
LINE
  5
49E
330
1F
100
AcDbEntity
  8
Default
 48
0.5
370
    15
100
AcDbLine
 10
9.25787497529923
 20
3.74079048248474
 30
0.0
 11
9.257839212512365
 21
3.740716572725219
 31
0.0
  0
LINE
  5
49F
330
1F
100
AcDbEntity
  8
Default
 48
0.5
370
    15
100
AcDbLine
 10
9.257839212512365
 20
3.740716572725219
 30
0.0
 11
7.454583177661291
 21
3.295669671022338
 31
0.0
  0
LINE
  5
4A0
330
1F
100
AcDbEntity
  8
0
 60
     1
100
AcDbLine
 10
7.454583177661291
 20
3.295669671022338
 30
0.0
 11
7.455686102008215
 21
3.303279515230101
 31
0.0
  0
LINE
  5
4A1
330
1F
100
AcDbEntity
  8
Default
 48
0.5
370
    15
100
AcDbLine
 10
9.333896169757238
 20
7.072504397355956
 30
0.0
 11
9.330255041217199
 21
7.07974540802185
 31
0.0
  0
LINE
  5
4A2
330
1F
100
AcDbEntity
  8
Default
 48
0.5
370
    15
100
AcDbLine
 10
9.330255041217199
 20
7.07974540802185
 30
0.0
 11
9.291271219348303
 21
7.076402541124267
 31
0.0
  0
LINE
  5
4A3
330
1F
100
AcDbEntity
  8
Default
 48
0.5
370
    15
100
AcDbLine
 10
9.291271219348303
 20
7.076402541124267
 30
0.0
 11
9.29134894380509
 21
7.068839426958007
 31
0.0
  0
LINE
  5
4A4
330
1F
100
AcDbEntity
  8
0
 60
     1
100
AcDbLine
 10
9.29134894380509
 20
7.068839426958007
 30
0.0
 11
9.333896169757238
 21
7.072504397355956
 31
0.0
  0
LINE
  5
4A5
330
1F
100
AcDbEntity
  8
Default
 48
0.5
370
    15
100
AcDbLine
 10
9.284824380969396
 20
7.068277474367064
 30
0.0
 11
9.291271219348303
 21
7.076402541124267
 31
0.0
  0
LINE
  5
4A6
330
1F
100
AcDbEntity
  8
0
 60
     1
100
AcDbLine
 10
9.291271219348303
 20
7.076402541124267
 30
0.0
 11
9.284824380969396
 21
7.068277474367064
 31
0.0
  0
LINE
  5
4A7
330
1F
100
AcDbEntity
  8
Default
 48
0.5
370
    15
100
AcDbLine
 10
10.65756894121109
 20
6.777165528261107
 30
0.0
 11
10.65823317537247
 21
6.776042576753539
 31
0.0
  0
LINE
  5
4A8
330
1F
100
AcDbEntity
  8
Default
 48
0.5
370
    15
100
AcDbLine
 10
10.65823317537247
 20
6.776042576753539
 30
0.0
 11
11.10297204027115
 21
6.023001547777099
 31
0.0
  0
LINE
  5
4A9
330
1F
100
AcDbEntity
  8
Default
 48
0.5
370
    15
100
AcDbLine
 10
11.10297204027115
 20
6.023001547777099
 30
0.0
 11
11.10228205690323
 21
6.021792527162475
 31
0.0
  0
LINE
  5
4AA
330
1F
100
AcDbEntity
  8
Default
 48
0.5
370
    15
100
AcDbLine
 10
11.10228205690323
 20
6.021792527162475
 30
0.0
 11
10.95383311281143
 21
5.999532576524657
 31
0.0
  0
LINE
  5
4AB
330
1F
100
AcDbEntity
  8
Default
 48
0.5
370
    15
100
AcDbLine
 10
10.95383311281143
 20
5.999532576524657
 30
0.0
 11
10.95256901750504
 21
5.99934351059143
 31
0.0
  0
LINE
  5
4AC
330
1F
100
AcDbEntity
  8
0
 60
     1
100
AcDbLine
 10
10.95256901750504
 20
5.99934351059143
 30
0.0
 11
10.65756894121109
 21
6.777165528261107
 31
0.0
  0
LINE
  5
4AD
330
1F
100
AcDbEntity
  8
Default
 48
0.5
370
    15
100
AcDbLine
 10
8.871300230121008
 20
6.585408564531249
 30
0.0
 11
8.761647234057775
 21
6.463746424638671
 31
0.0
  0
LINE
  5
4AE
330
1F
100
AcDbEntity
  8
Default
 48
0.5
370
    15
100
AcDbLine
 10
8.761647234057775
 20
6.463746424638671
 30
0.0
 11
8.729542265033117
 21
6.428124543153685
 31
0.0
  0
LINE
  5
4AF
330
1F
100
AcDbEntity
  8
Default
 48
0.5
370
    15
100
AcDbLine
 10
8.729542265033117
 20
6.428124543153685
 30
0.0
 11
8.594635019397131
 21
6.303580399476928
 31
0.0
  0
LINE
  5
4B0
330
1F
100
AcDbEntity
  8
Default
 48
0.5
370
    15
100
AcDbLine
 10
8.594635019397131
 20
6.303580399476928
 30
0.0
 11
8.474321374987951
 21
6.16446745010559
 31
0.0
  0
LINE
  5
4B1
330
1F
100
AcDbEntity
  8
Default
 48
0.5
370
    15
100
AcDbLine
 10
8.474321374987951
 20
6.16446745010559
 30
0.0
 11
8.414127359485021
 21
6.103067513429564
 31
0.0
  0
LINE
  5
4B2
330
1F
100
AcDbEntity
  8
Default
 48
0.5
370
    15
100
AcDbLine
 10
8.414127359485021
 20
6.103067513429564
 30
0.0
 11
8.348947057818762
 21
6.061841603242797
 31
0.0
  0
LINE
  5
4B3
330
1F
100
AcDbEntity
  8
Default
 48
0.5
370
    15
100
AcDbLine
 10
8.348947057818762
 20
6.061841603242797
 30
0.0
 11
7.9775300122255
 21
5.985715504609984
 31
0.0
  0
LINE
  5
4B4
330
1F
100
AcDbEntity
  8
Default
 48
0.5
370
    15
100
AcDbLine
 10
7.9775300122255
 20
5.985715504609984
 30
0.0
 11
7.893208990191808
 21
5.975880499803466
 31
0.0
  0
LINE
  5
4B5
330
1F
100
AcDbEntity
  8
Default
 48
0.5
370
    15
100
AcDbLine
 10
7.893208990191808
 20
5.975880499803466
 30
0.0
 11
7.828637132739416
 21
5.95286643119995
 31
0.0
  0
LINE
  5
4B6
330
1F
100
AcDbEntity
  8
Default
 48
0.5
370
    15
100
AcDbLine
 10
7.828637132739416
 20
5.95286643119995
 30
0.0
 11
7.773968229388586
 21
5.919555541002196
 31
0.0
  0
LINE
  5
4B7
330
1F
100
AcDbEntity
  8
Default
 48
0.5
370
    15
100
AcDbLine
 10
7.773968229388586
 20
5.919555541002196
 30
0.0
 11
7.690113077258459
 21
5.888597603761596
 31
0.0
  0
LINE
  5
4B8
330
1F
100
AcDbEntity
  8
Default
 48
0.5
370
    15
100
AcDbLine
 10
7.690113077258459
 20
5.888597603761596
 30
0.0
 11
7.524033079242101
 21
5.850212450944823
 31
0.0
  0
LINE
  5
4B9
330
1F
100
AcDbEntity
  8
Default
 48
0.5
370
    15
100
AcDbLine
 10
7.524033079242101
 20
5.850212450944823
 30
0.0
 11
7.42033196458756
 21
5.810288544618529
 31
0.0
  0
LINE
  5
4BA
330
1F
100
AcDbEntity
  8
Default
 48
0.5
370
    15
100
AcDbLine
 10
7.42033196458756
 20
5.810288544618529
 30
0.0
 11
7.363173256015173
 21
5.770533438646239
 31
0.0
  0
LINE
  5
4BB
330
1F
100
AcDbEntity
  8
Default
 48
0.5
370
    15
100
AcDbLine
 10
7.363173256015173
 20
5.770533438646239
 30
0.0
 11
7.330669174289099
 21
5.720193501436156
 31
0.0
  0
LINE
  5
4BC
330
1F
100
AcDbEntity
  8
Default
 48
0.5
370
    15
100
AcDbLine
 10
7.330669174289099
 20
5.720193501436156
 30
0.0
 11
7.317695150470129
 21
5.66920959564392
 31
0.0
  0
LINE
  5
4BD
330
1F
100
AcDbEntity
  8
Default
 48
0.5
370
    15
100
AcDbLine
 10
7.317695150470129
 20
5.66920959564392
 30
0.0
 11
7.282657156085363
 21
5.612350579225463
 31
0.0
  0
LINE
  5
4BE
330
1F
100
AcDbEntity
  8
Default
 48
0.5
370
    15
100
AcDbLine
 10
7.282657156085363
 20
5.612350579225463
 30
0.0
 11
7.2345621682161
 21
5.586742516481322
 31
0.0
  0
LINE
  5
4BF
330
1F
100
AcDbEntity
  8
Default
 48
0.5
370
    15
100
AcDbLine
 10
7.2345621682161
 20
5.586742516481322
 30
0.0
 11
7.160529146289221
 21
5.550513382875365
 31
0.0
  0
LINE
  5
4C0
330
1F
100
AcDbEntity
  8
Default
 48
0.5
370
    15
100
AcDbLine
 10
7.160529146289221
 20
5.550513382875365
 30
0.0
 11
7.160449037646642
 21
5.549154396974486
 31
0.0
  0
LINE
  5
4C1
330
1F
100
AcDbEntity
  8
Default
 48
0.5
370
    15
100
AcDbLine
 10
7.160449037646642
 20
5.549154396974486
 30
0.0
 11
7.161412248706213
 21
5.545002575838012
 31
0.0
  0
LINE
  5
4C2
330
1F
100
AcDbEntity
  8
Default
 48
0.5
370
    15
100
AcDbLine
 10
7.161412248706213
 20
5.545002575838012
 30
0.0
 11
7.164812097644201
 21
5.530353423082274
 31
0.0
  0
LINE
  5
4C3
330
1F
100
AcDbEntity
  8
0
 60
     1
100
AcDbLine
 10
7.164812097644201
 20
5.530353423082274
 30
0.0
 11
8.871300230121008
 21
6.585408564531249
 31
0.0
  0
LINE
  5
4C4
330
1F
100
AcDbEntity
  8
Default
 48
0.5
370
    15
100
AcDbLine
 10
8.871300230121008
 20
6.585408564531249
 30
0.0
 11
10.65756894121109
 21
6.777165528261107
 31
0.0
  0
LINE
  5
4C5
330
1F
100
AcDbEntity
  8
0
 60
     1
100
AcDbLine
 10
10.65756894121109
 20
6.777165528261107
 30
0.0
 11
8.871300230121008
 21
6.585408564531249
 31
0.0
  0
LINE
  5
4C6
330
1F
100
AcDbEntity
  8
Default
 48
0.5
370
    15
100
AcDbLine
 10
10.95256901750504
 20
5.99934351059143
 30
0.0
 11
7.121656189059606
 21
5.424893494569701
 31
0.0
  0
LINE
  5
4C7
330
1F
100
AcDbEntity
  8
Default
 48
0.5
370
    15
100
AcDbLine
 10
7.121656189059606
 20
5.424893494569701
 30
0.0
 11
7.121729145144811
 21
5.426244374238891
 31
0.0
  0
LINE
  5
4C8
330
1F
100
AcDbEntity
  8
Default
 48
0.5
370
    15
100
AcDbLine
 10
7.121729145144811
 20
5.426244374238891
 30
0.0
 11
7.130432138537756
 21
5.444315548860473
 31
0.0
  0
LINE
  5
4C9
330
1F
100
AcDbEntity
  8
Default
 48
0.5
370
    15
100
AcDbLine
 10
7.130432138537756
 20
5.444315548860473
 30
0.0
 11
7.139124164676061
 21
5.456977482759398
 31
0.0
  0
LINE
  5
4CA
330
1F
100
AcDbEntity
  8
Default
 48
0.5
370
    15
100
AcDbLine
 10
7.139124164676061
 20
5.456977482759398
 30
0.0
 11
7.152710208987585
 21
5.469938393556518
 31
0.0
  0
LINE
  5
4CB
330
1F
100
AcDbEntity
  8
Default
 48
0.5
370
    15
100
AcDbLine
 10
7.152710208987585
 20
5.469938393556518
 30
0.0
 11
7.155619154071203
 21
5.483308430635375
 31
0.0
  0
LINE
  5
4CC
330
1F
100
AcDbEntity
  8
Default
 48
0.5
370
    15
100
AcDbLine
 10
7.155619154071203
 20
5.483308430635375
 30
0.0
 11
7.163437137698522
 21
5.517143603288573
 31
0.0
  0
LINE
  5
4CD
330
1F
100
AcDbEntity
  8
Default
 48
0.5
370
    15
100
AcDbLine
 10
7.163437137698522
 20
5.517143603288573
 30
0.0
 11
7.164812097644201
 21
5.530353423082274
 31
0.0
  0
LINE
  5
4CE
330
1F
100
AcDbEntity
  8
Default
 48
0.5
370
    15
100
AcDbLine
 10
7.164812097644201
 20
5.530353423082274
 30
0.0
 11
7.164935121631017
 21
5.531530495607299
 31
0.0
  0
LINE
  5
4CF
330
1F
100
AcDbEntity
  8
0
 60
     1
100
AcDbLine
 10
7.164935121631017
 20
5.531530495607299
 30
0.0
 11
10.95256901750504
 21
5.99934351059143
 31
0.0
  0
LINE
  5
4D0
330
1F
100
AcDbEntity
  8
Default
 48
0.5
370
    15
100
AcDbLine
 10
7.455686102008215
 20
3.303279515230101
 30
0.0
 11
7.11429120073258
 21
4.533548470460814
 31
0.0
  0
LINE
  5
4D1
330
1F
100
AcDbEntity
  8
Default
 48
0.5
370
    15
100
AcDbLine
 10
7.11429120073258
 20
4.533548470460814
 30
0.0
 11
7.11436820993363
 21
4.534808274232787
 31
0.0
  0
LINE
  5
4D2
330
1F
100
AcDbEntity
  8
Default
 48
0.5
370
    15
100
AcDbLine
 10
7.11436820993363
 20
4.534808274232787
 30
0.0
 11
7.114773044680944
 21
4.534885521852416
 31
0.0
  0
LINE
  5
4D3
330
1F
100
AcDbEntity
  8
Default
 48
0.5
370
    15
100
AcDbLine
 10
7.114773044680944
 20
4.534885521852416
 30
0.0
 11
7.146552095507971
 21
4.420387383424682
 31
0.0
  0
LINE
  5
4D4
330
1F
100
AcDbEntity
  8
Default
 48
0.5
370
    15
100
AcDbLine
 10
7.146552095507971
 20
4.420387383424682
 30
0.0
 11
12.28152657518326
 21
5.417376395189208
 31
0.0
  0
LINE
  5
4D5
330
1F
100
AcDbEntity
  8
Default
 48
0.5
370
    15
100
AcDbLine
 10
12.28152657518326
 20
5.417376395189208
 30
0.0
 11
12.2829589940065
 21
5.41765439125244
 31
0.0
  0
LINE
  5
4D6
330
1F
100
AcDbEntity
  8
0
 60
     1
100
AcDbLine
 10
12.2829589940065
 20
5.41765439125244
 30
0.0
 11
7.455686102008215
 21
3.303279515230101
 31
0.0
  0
LINE
  5
4D7
330
1F
100
AcDbEntity
  8
Default
 48
0.5
370
    15
100
AcDbLine
 10
13.79946805009781
 20
4.866868611299437
 30
0.0
 11
13.80058861741959
 21
4.867896672212523
 31
0.0
  0
LINE
  5
4D8
330
1F
100
AcDbEntity
  8
Default
 48
0.5
370
    15
100
AcDbLine
 10
13.80058861741959
 20
4.867896672212523
 30
0.0
 11
13.26575661668717
 21
5.607571478807372
 31
0.0
  0
LINE
  5
4D9
330
1F
100
AcDbEntity
  8
Default
 48
0.5
370
    15
100
AcDbLine
 10
13.26575661668717
 20
5.607571478807372
 30
0.0
 11
13.2667408085817
 21
5.608662482225341
 31
0.0
  0
LINE
  5
4DA
330
1F
100
AcDbEntity
  8
Default
 48
0.5
370
    15
100
AcDbLine
 10
13.2667408085817
 20
5.608662482225341
 30
0.0
 11
12.78610516557633
 21
6.273276444398803
 31
0.0
  0
LINE
  5
4DB
330
1F
100
AcDbEntity
  8
0
 60
     1
100
AcDbLine
 10
12.78610516557633
 20
6.273276444398803
 30
0.0
 11
13.79946805009781
 21
4.866868611299437
 31
0.0
  0
LINE
  5
4DC
330
1F
100
AcDbEntity
  8
Default
 48
0.5
370
    15
100
AcDbLine
 10
7.161412248706213
 20
5.545002575838012
 30
0.0
 11
6.847444067096105
 21
5.499495383226317
 31
0.0
  0
LINE
  5
4DD
330
1F
100
AcDbEntity
  8
Default
 48
0.5
370
    15
100
AcDbLine
 10
6.847444067096105
 20
5.499495383226317
 30
0.0
 11
6.847423086261144
 21
5.498127575838012
 31
0.0
  0
LINE
  5
4DE
330
1F
100
AcDbEntity
  8
Default
 48
0.5
370
    15
100
AcDbLine
 10
6.847423086261144
 20
5.498127575838012
 30
0.0
 11
7.012286195849767
 21
4.904140587770385
 31
0.0
  0
LINE
  5
4DF
330
1F
100
AcDbEntity
  8
Default
 48
0.5
370
    15
100
AcDbLine
 10
7.012286195849767
 20
4.904140587770385
 30
0.0
 11
7.114773044680944
 21
4.534885521852416
 31
0.0
  0
LINE
  5
4E0
330
1F
100
AcDbEntity
  8
0
 60
     1
100
AcDbLine
 10
7.114773044680944
 20
4.534885521852416
 30
0.0
 11
7.161412248706213
 21
5.545002575838012
 31
0.0
  0
LINE
  5
4E1
330
1F
100
AcDbEntity
  8
Default
 48
0.5
370
    15
100
AcDbLine
 10
12.2829589940065
 20
5.41765439125244
 30
0.0
 11
12.4213514424318
 21
5.444524403535766
 31
0.0
  0
LINE
  5
4E2
330
1F
100
AcDbEntity
  8
Default
 48
0.5
370
    15
100
AcDbLine
 10
12.4213514424318
 20
5.444524403535766
 30
0.0
 11
12.42225171098648
 21
5.445644494020385
 31
0.0
  0
LINE
  5
4E3
330
1F
100
AcDbEntity
  8
Default
 48
0.5
370
    15
100
AcDbLine
 10
12.42225171098648
 20
5.445644494020385
 30
0.0
 11
11.95964814195572
 21
6.149300452196044
 31
0.0
  0
LINE
  5
4E4
330
1F
100
AcDbEntity
  8
Default
 48
0.5
370
    15
100
AcDbLine
 10
11.95964814195572
 20
6.149300452196044
 30
0.0
 11
12.78610516557633
 21
6.273276444398803
 31
0.0
  0
LINE
  5
4E5
330
1F
100
AcDbEntity
  8
Default
 48
0.5
370
    15
100
AcDbLine
 10
12.78610516557633
 20
6.273276444398803
 30
0.0
 11
12.7876319981569
 21
6.273506518327636
 31
0.0
  0
LINE
  5
4E6
330
1F
100
AcDbEntity
  8
0
 60
     1
100
AcDbLine
 10
12.7876319981569
 20
6.273506518327636
 30
0.0
 11
12.2829589940065
 21
5.41765439125244
 31
0.0
  0
LINE
  5
4E7
330
1F
100
AcDbEntity
  8
Default
 48
0.5
370
    15
100
AcDbLine
 10
12.7876319981569
 20
6.273506518327636
 30
0.0
 11
12.78850174913346
 21
6.274643536531371
 31
0.0
  0
LINE
  5
4E8
330
1F
100
AcDbEntity
  8
Default
 48
0.5
370
    15
100
AcDbLine
 10
12.78850174913346
 20
6.274643536531371
 30
0.0
 11
12.29833317766129
 21
6.952210541688842
 31
0.0
  0
LINE
  5
4E9
330
1F
100
AcDbEntity
  8
Default
 48
0.5
370
    15
100
AcDbLine
 10
12.29833317766129
 20
6.952210541688842
 30
0.0
 11
12.29098702440201
 21
6.951420422517699
 31
0.0
  0
LINE
  5
4EA
330
1F
100
AcDbEntity
  8
Default
 48
0.5
370
    15
100
AcDbLine
 10
12.29098702440201
 20
6.951420422517699
 30
0.0
 11
10.73217535982071
 21
6.783985491716308
 31
0.0
  0
LINE
  5
4EB
330
1F
100
AcDbEntity
  8
Default
 48
0.5
370
    15
100
AcDbLine
 10
10.73217535982071
 20
6.783985491716308
 30
0.0
 11
10.73216725358902
 21
6.783984538041991
 31
0.0
  0
LINE
  5
4EC
330
1F
100
AcDbEntity
  8
0
 60
     1
100
AcDbLine
 10
10.73216725358902
 20
6.783984538041991
 30
0.0
 11
12.7876319981569
 21
6.273506518327636
 31
0.0
  0
LINE
  5
4ED
330
1F
100
AcDbEntity
  8
Default
 48
0.5
370
    15
100
AcDbLine
 10
6.337878236865392
 20
5.596385594331664
 30
0.0
 11
6.323874244784704
 21
5.695477601015014
 31
0.0
  0
LINE
  5
4EE
330
1F
100
AcDbEntity
  8
Default
 48
0.5
370
    15
100
AcDbLine
 10
6.323874244784704
 20
5.695477601015014
 30
0.0
 11
6.32238913545548
 21
5.705983515703124
 31
0.0
  0
LINE
  5
4EF
330
1F
100
AcDbEntity
  8
0
 60
     1
100
AcDbLine
 10
6.32238913545548
 20
5.705983515703124
 30
0.0
 11
6.337878236865392
 21
5.596385594331664
 31
0.0
  0
LINE
  5
4F0
330
1F
100
AcDbEntity
  8
Default
 48
0.5
370
    15
100
AcDbLine
 10
8.211003313159338
 20
6.401779528581542
 30
0.0
 11
7.991279134845129
 21
6.956855412446898
 31
0.0
  0
LINE
  5
4F1
330
1F
100
AcDbEntity
  8
Default
 48
0.5
370
    15
100
AcDbLine
 10
7.991279134845129
 20
6.956855412446898
 30
0.0
 11
7.991260061358801
 21
6.956903572999877
 31
0.0
  0
LINE
  5
4F2
330
1F
100
AcDbEntity
  8
Default
 48
0.5
370
    15
100
AcDbLine
 10
7.991260061358801
 20
6.956903572999877
 30
0.0
 11
7.963998327350012
 21
6.954554434739989
 31
0.0
  0
LINE
  5
4F3
330
1F
100
AcDbEntity
  8
0
 60
     1
100
AcDbLine
 10
7.963998327350012
 20
6.954554434739989
 30
0.0
 11
8.211003313159338
 21
6.401779528581542
 31
0.0
  0
LINE
  5
4F4
330
1F
100
AcDbEntity
  8
Default
 48
0.5
370
    15
100
AcDbLine
 10
6.365861187075964
 20
6.075638409578246
 30
0.0
 11
6.36799312601029
 21
6.064937468492431
 31
0.0
  0
LINE
  5
4F5
330
1F
100
AcDbEntity
  8
Default
 48
0.5
370
    15
100
AcDbLine
 10
6.36799312601029
 20
6.064937468492431
 30
0.0
 11
6.320725212191931
 21
5.717762585603637
 31
0.0
  0
LINE
  5
4F6
330
1F
100
AcDbEntity
  8
Default
 48
0.5
370
    15
100
AcDbLine
 10
6.320725212191931
 20
5.717762585603637
 30
0.0
 11
6.320758113955847
 21
5.717527504884643
 31
0.0
  0
LINE
  5
4F7
330
1F
100
AcDbEntity
  8
0
 60
     1
100
AcDbLine
 10
6.320758113955847
 20
5.717527504884643
 30
0.0
 11
6.365861187075964
 21
6.075638409578246
 31
0.0
  0
LINE
  5
4F8
330
1F
100
AcDbEntity
  8
Default
 48
0.5
370
    15
100
AcDbLine
 10
6.374177227115026
 20
5.601384516679686
 30
0.0
 11
6.377076158618322
 21
5.619363423311156
 31
0.0
  0
LINE
  5
4F9
330
1F
100
AcDbEntity
  8
Default
 48
0.5
370
    15
100
AcDbLine
 10
6.377076158618322
 20
5.619363423311156
 30
0.0
 11
6.526438245868078
 21
6.545718546831054
 31
0.0
  0
LINE
  5
4FA
330
1F
100
AcDbEntity
  8
0
 60
     1
100
AcDbLine
 10
6.526438245868078
 20
6.545718546831054
 30
0.0
 11
6.374177227115026
 21
5.601384516679686
 31
0.0
  0
LINE
  5
4FB
330
1F
100
AcDbEntity
  8
Default
 48
0.5
370
    15
100
AcDbLine
 10
10.65823317537247
 20
6.776042576753539
 30
0.0
 11
10.73216725358902
 21
6.783984538041991
 31
0.0
  0
LINE
  5
4FC
330
1F
100
AcDbEntity
  8
0
 60
     1
100
AcDbLine
 10
10.73216725358902
 20
6.783984538041991
 30
0.0
 11
10.65823317537247
 21
6.776042576753539
 31
0.0
  0
LINE
  5
4FD
330
1F
100
AcDbEntity
  8
Default
 48
0.5
370
    15
100
AcDbLine
 10
7.436235914325109
 20
3.361805554353637
 30
0.0
 11
7.44550515184342
 21
3.32839452835266
 31
0.0
  0
LINE
  5
4FE
330
1F
100
AcDbEntity
  8
Default
 48
0.5
370
    15
100
AcDbLine
 10
7.44550515184342
 20
3.32839452835266
 30
0.0
 11
7.454583177661291
 21
3.295669671022338
 31
0.0
  0
LINE
  5
4FF
330
1F
100
AcDbEntity
  8
0
 60
     1
100
AcDbLine
 10
7.454583177661291
 20
3.295669671022338
 30
0.0
 11
7.436235914325109
 21
3.361805554353637
 31
0.0
  0
LINE
  5
500
330
1F
100
AcDbEntity
  8
Default
 48
0.5
370
    15
100
AcDbLine
 10
6.472791204547277
 20
6.834658499681395
 30
0.0
 11
6.471389064883581
 21
6.82436358543579
 31
0.0
  0
LINE
  5
501
330
1F
100
AcDbEntity
  8
Default
 48
0.5
370
    15
100
AcDbLine
 10
6.471389064883581
 20
6.82436358543579
 30
0.0
 11
6.430907259082189
 21
6.527030583345336
 31
0.0
  0
LINE
  5
502
330
1F
100
AcDbEntity
  8
0
 60
     1
100
AcDbLine
 10
6.430907259082189
 20
6.527030583345336
 30
0.0
 11
6.472791204547277
 21
6.834658499681395
 31
0.0
  0
LINE
  5
503
330
1F
100
AcDbEntity
  8
Default
 48
0.5
370
    15
100
AcDbLine
 10
10.49989033708512
 20
7.172939415895385
 30
0.0
 11
10.47388030061661
 21
7.170699473344726
 31
0.0
  0
LINE
  5
504
330
1F
100
AcDbEntity
  8
0
 60
     1
100
AcDbLine
 10
10.47388030061661
 20
7.170699473344726
 30
0.0
 11
10.49989033708512
 21
7.172939415895385
 31
0.0
  0
LINE
  5
505
330
1F
100
AcDbEntity
  8
Default
 48
0.5
370
    15
100
AcDbLine
 10
11.50997925767838
 20
7.259988423311156
 30
0.0
 11
11.50511742601334
 21
7.259569521867675
 31
0.0
  0
LINE
  5
506
330
1F
100
AcDbEntity
  8
Default
 48
0.5
370
    15
100
AcDbLine
 10
11.50511742601334
 20
7.259569521867675
 30
0.0
 11
11.4961748219484
 21
7.258799429857177
 31
0.0
  0
LINE
  5
507
330
1F
100
AcDbEntity
  8
Default
 48
0.5
370
    15
100
AcDbLine
 10
11.4961748219484
 20
7.258799429857177
 30
0.0
 11
11.04706717500626
 21
7.22011553856079
 31
0.0
  0
LINE
  5
508
330
1F
100
AcDbEntity
  8
0
 60
     1
100
AcDbLine
 10
11.04706717500626
 20
7.22011553856079
 30
0.0
 11
11.50997925767838
 21
7.259988423311156
 31
0.0
  0
LINE
  5
509
330
1F
100
AcDbEntity
  8
Default
 48
0.5
370
    15
100
AcDbLine
 10
10.46956397066056
 20
7.170327540361327
 30
0.0
 11
10.46162796983658
 21
7.169644471132201
 31
0.0
  0
LINE
  5
50A
330
1F
100
AcDbEntity
  8
Default
 48
0.5
370
    15
100
AcDbLine
 10
10.46162796983658
 20
7.169644471132201
 30
0.0
 11
9.938447008227697
 21
7.124578591310424
 31
0.0
  0
LINE
  5
50B
330
1F
100
AcDbEntity
  8
0
 60
     1
100
AcDbLine
 10
9.938447008227697
 20
7.124578591310424
 30
0.0
 11
10.46956397066056
 21
7.170327540361327
 31
0.0
  0
LINE
  5
50C
330
1F
100
AcDbEntity
  8
Default
 48
0.5
370
    15
100
AcDbLine
 10
12.02464295396744
 20
7.304319497072143
 30
0.0
 11
11.99516583452164
 21
7.301779385530394
 31
0.0
  0
LINE
  5
50D
330
1F
100
AcDbEntity
  8
Default
 48
0.5
370
    15
100
AcDbLine
 10
11.99516583452164
 20
7.301779385530394
 30
0.0
 11
11.9900655842775
 21
7.301340456926268
 31
0.0
  0
LINE
  5
50E
330
1F
100
AcDbEntity
  8
0
 60
     1
100
AcDbLine
 10
11.9900655842775
 20
7.301340456926268
 30
0.0
 11
12.02464295396744
 21
7.304319497072143
 31
0.0
  0
LINE
  5
50F
330
1F
100
AcDbEntity
  8
Default
 48
0.5
370
    15
100
AcDbLine
 10
7.87539435396134
 20
3.399526711427611
 30
0.0
 11
7.875484953021398
 21
3.399362679445189
 31
0.0
  0
LINE
  5
510
330
1F
100
AcDbEntity
  8
0
 60
     1
100
AcDbLine
 10
7.875484953021398
 20
3.399362679445189
 30
0.0
 11
7.87539435396134
 21
3.399526711427611
 31
0.0
  0
TEXT
  5
511
330
1F
100
AcDbEntity
  8
Default
100
AcDbText
 10
11.35912133226334
 20
6.366974402093333
 30
0.0
 40
0.0666666701436043
  1
 
  7
Montserrat
 11
11.35912133226334
 21
6.433641072236937
 31
0.0
100
AcDbText
 73
     3
  0
TEXT
  5
512
330
1F
100
AcDbEntity
  8
Default
100
AcDbText
 10
10.50765610704361
 20
6.89130168023054
 30
0.0
 40
0.0666666701436043
  1
 
  7
Montserrat
 11
10.50765610704361
 21
6.957968350374144
 31
0.0
100
AcDbText
 73
     3
  0
TEXT
  5
513
330
1F
100
AcDbEntity
  8
Default
100
AcDbText
 10
6.661996135806433
 20
5.430212784432811
 30
0.0
 40
0.0666666701436043
  1
 
  7
Montserrat
 11
6.661996135806433
 21
5.496879454576415
 31
0.0
100
AcDbText
 73
     3
  0
VIEWPORT
  5
A5
330
A1
100
AcDbEntity
 67
     1
  8
0
100
AcDbViewport
 10
10.70668270622676
 20
3.036179097610221
 30
0.0
 40
35.44403705154532
 41
13.98572622856395
 68
     1
 69
     1
 12
10.70668270622676
 22
3.036179097610221
 13
0.0
 23
0.0
 14
0.5
 24
0.5
 15
0.5
 25
0.5
 16
0.0
 26
0.0
 36
1.0
 17
0.0
 27
0.0
 37
0.0
 42
50.0
 43
0.0
 44
0.0
 45
13.98572622856395
 50
0.0
 51
0.0
 72
   100
 90
   557152
  1

281
     0
 71
     1
 74
     0
110
0.0
120
0.0
130
0.0
111
1.0
121
0.0
131
0.0
112
0.0
122
1.0
132
0.0
 79
     0
146
0.0
170
     0
 61
     5
348
2F
292
     1
282
     1
141
0.0
142
0.0
361
A6
  0
LINE
  5
A9
330
A1
100
AcDbEntity
 67
     1
  8
Default
 48
0.5
370
    15
100
AcDbLine
 10
0.1666666716337204
 20
8.333333328366279
 30
0.0
 11
10.83333396911621
 21
8.333333328366279
 31
0.0
  0
LINE
  5
AA
330
A1
100
AcDbEntity
 67
     1
  8
Default
 48
0.5
370
    15
100
AcDbLine
 10
10.83333396911621
 20
8.333333328366279
 30
0.0
 11
10.83333396911621
 21
0.1666660308837891
 31
0.0
  0
LINE
  5
AB
330
A1
100
AcDbEntity
 67
     1
  8
Default
 48
0.5
370
    15
100
AcDbLine
 10
10.83333396911621
 20
0.1666660308837891
 30
0.0
 11
0.1666666716337204
 21
0.1666660308837891
 31
0.0
  0
LINE
  5
AC
330
A1
100
AcDbEntity
 67
     1
  8
Default
 48
0.5
370
    15
100
AcDbLine
 10
0.1666666716337204
 20
0.1666660308837891
 30
0.0
 11
0.1666666716337204
 21
8.333333328366279
 31
0.0
  0
LINE
  5
AD
330
A1
100
AcDbEntity
 67
     1
  8
Default
 48
0.5
370
    15
100
AcDbLine
 10
0.1666666865348816
 20
1.416666030883789
 30
0.0
 11
2.041666746139526
 21
1.416666030883789
 31
0.0
  0
LINE
  5
AE
330
A1
100
AcDbEntity
 67
     1
  8
Default
 48
0.5
370
    15
100
AcDbLine
 10
2.041666746139526
 20
1.416666030883789
 30
0.0
 11
2.041666746139526
 21
0.1666660308837891
 31
0.0
  0
LINE
  5
AF
330
A1
100
AcDbEntity
 67
     1
  8
Default
 48
0.5
370
    15
100
AcDbLine
 10
2.041666746139526
 20
0.1666660308837891
 30
0.0
 11
0.1666666865348816
 21
0.1666660308837891
 31
0.0
  0
LINE
  5
B0
330
A1
100
AcDbEntity
 67
     1
  8
Default
 48
0.5
370
    15
100
AcDbLine
 10
0.1666666865348816
 20
0.1666660308837891
 30
0.0
 11
0.1666666865348816
 21
1.416666030883789
 31
0.0
  0
LINE
  5
B1
330
A1
100
AcDbEntity
 67
     1
  8
Default
 48
0.5
370
    15
100
AcDbLine
 10
2.041666984558105
 20
1.416666030883789
 30
0.0
 11
3.916666984558105
 21
1.416666030883789
 31
0.0
  0
LINE
  5
B2
330
A1
100
AcDbEntity
 67
     1
  8
Default
 48
0.5
370
    15
100
AcDbLine
 10
3.916666984558105
 20
1.416666030883789
 30
0.0
 11
3.916666984558105
 21
0.1666660308837891
 31
0.0
  0
LINE
  5
B3
330
A1
100
AcDbEntity
 67
     1
  8
Default
 48
0.5
370
    15
100
AcDbLine
 10
3.916666984558105
 20
0.1666660308837891
 30
0.0
 11
2.041666984558105
 21
0.1666660308837891
 31
0.0
  0
LINE
  5
B4
330
A1
100
AcDbEntity
 67
     1
  8
Default
 48
0.5
370
    15
100
AcDbLine
 10
2.041666984558105
 20
0.1666660308837891
 30
0.0
 11
2.041666984558105
 21
1.416666030883789
 31
0.0
  0
IMAGE
  5
B7
330
A1
100
AcDbEntity
 67
     1
  8
Images
160
               140
310
8C0000000100000084000000060000000500000000000000ABAADE3F00000000A8AADE3F000000000000000000000000ABAADE3F00000080A9AAF13F0000000000000000000000C0AAAAFB3F00000080A9AAF13F0000000000000000000000C0AAAAFB3F00000000A8AADE3F000000000000000000000000ABAADE3F000000
310
00A8AADE3F0000000000000000
100
AcDbRasterImage
 90
        0
 10
0.4791667461395264
 20
0.4791660308837891
 30
0.0
 11
0.0010137875101379
 21
0.0
 31
0.0
 12
0.0
 22
0.0010702046629501
 32
0.0
 13
1233.0
 23
584.0
340
B6
 70
    15
280
     0
281
    50
282
    50
283
     0
290
     0
360
B8
 71
     1
 91
        2
 14
-0.5
 24
-0.5
 14
1232.5
 24
583.4999999999999
  0
LINE
  5
BA
330
A1
100
AcDbEntity
 67
     1
  8
Default
 48
0.5
370
    15
100
AcDbLine
 10
10.83333015441894
 20
1.416666030883789
 30
0.0
 11
3.916666984558105
 21
1.416666030883789
 31
0.0
  0
LINE
  5
BB
330
A1
100
AcDbEntity
 67
     1
  8
Default
 48
0.5
370
    15
100
AcDbLine
 10
3.916666984558105
 20
1.416666030883789
 30
0.0
 11
8.416667938232421
 21
1.416666030883789
 31
0.0
  0
LINE
  5
BC
330
A1
100
AcDbEntity
 67
     1
  8
0
 60
     1
100
AcDbLine
 10
8.416667938232421
 20
1.416666030883789
 30
0.0
 11
10.83333015441894
 21
1.416666030883789
 31
0.0
  0
LINE
  5
BD
330
A1
100
AcDbEntity
 67
     1
  8
Default
 48
0.5
370
    15
100
AcDbLine
 10
3.916666984558105
 20
1.416666030883789
 30
0.0
 11
8.166384696960449
 21
1.416666030883789
 31
0.0
  0
LINE
  5
BE
330
A1
100
AcDbEntity
 67
     1
  8
Default
 48
0.5
370
    15
100
AcDbLine
 10
8.166384696960449
 20
1.416666030883789
 30
0.0
 11
8.166384696960449
 21
0.1666660308837891
 31
0.0
  0
LINE
  5
BF
330
A1
100
AcDbEntity
 67
     1
  8
Default
 48
0.5
370
    15
100
AcDbLine
 10
8.166384696960449
 20
0.1666660308837891
 30
0.0
 11
8.166384696960449
 21
0.4166660308837891
 31
0.0
  0
LINE
  5
C0
330
A1
100
AcDbEntity
 67
     1
  8
Default
 48
0.5
370
    15
100
AcDbLine
 10
8.166384696960449
 20
0.4166660308837891
 30
0.0
 11
10.83333015441894
 21
0.4166660308837891
 31
0.0
  0
LINE
  5
C1
330
A1
100
AcDbEntity
 67
     1
  8
0
 60
     1
100
AcDbLine
 10
10.83333015441894
 20
0.4166660308837891
 30
0.0
 11
3.916666984558105
 21
1.416666030883789
 31
0.0
  0
LINE
  5
C2
330
A1
100
AcDbEntity
 67
     1
  8
Default
 48
0.5
370
    15
100
AcDbLine
 10
3.916666984558105
 20
1.416666030883789
 30
0.0
 11
5.166666984558105
 21
1.416666030883789
 31
0.0
  0
LINE
  5
C3
330
A1
100
AcDbEntity
 67
     1
  8
Default
 48
0.5
370
    15
100
AcDbLine
 10
5.166666984558105
 20
1.416666030883789
 30
0.0
 11
5.166666984558105
 21
1.166666507720947
 31
0.0
  0
LINE
  5
C4
330
A1
100
AcDbEntity
 67
     1
  8
Default
 48
0.5
370
    15
100
AcDbLine
 10
5.166666984558105
 20
1.166666507720947
 30
0.0
 11
3.916666984558105
 21
1.166666507720947
 31
0.0
  0
LINE
  5
C5
330
A1
100
AcDbEntity
 67
     1
  8
Default
 48
0.5
370
    15
100
AcDbLine
 10
3.916666984558105
 20
1.166666507720947
 30
0.0
 11
3.916666984558105
 21
1.416666030883789
 31
0.0
  0
LINE
  5
C6
330
A1
100
AcDbEntity
 67
     1
  8
Default
 48
0.5
370
    15
100
AcDbLine
 10
8.166383743286132
 20
1.416666030883789
 30
0.0
 11
9.233421325683593
 21
1.416666030883789
 31
0.0
  0
LINE
  5
C7
330
A1
100
AcDbEntity
 67
     1
  8
Default
 48
0.5
370
    15
100
AcDbLine
 10
9.233421325683593
 20
1.416666030883789
 30
0.0
 11
9.233421325683593
 21
1.166666507720947
 31
0.0
  0
LINE
  5
C8
330
A1
100
AcDbEntity
 67
     1
  8
Default
 48
0.5
370
    15
100
AcDbLine
 10
9.233421325683593
 20
1.166666507720947
 30
0.0
 11
8.166383743286132
 21
1.166666507720947
 31
0.0
  0
LINE
  5
C9
330
A1
100
AcDbEntity
 67
     1
  8
Default
 48
0.5
370
    15
100
AcDbLine
 10
8.166383743286132
 20
1.166666507720947
 30
0.0
 11
8.166383743286132
 21
1.416666030883789
 31
0.0
  0
TEXT
  5
CB
330
A1
100
AcDbEntity
 67
     1
  8
Default
100
AcDbText
 10
3.979166984558105
 20
1.229654790364189
 30
0.0
 40
0.0942919030785561
  1
DESCRIPTION:
  7
RockwellBold
 11
3.979166984558105
 21
1.197916507720947
 31
0.0
100
AcDbText
 73
     1
  0
TEXT
  5
CC
330
A1
100
AcDbEntity
 67
     1
  8
Default
100
AcDbText
 10
8.228884696960449
 20
1.229654790364189
 30
0.0
 40
0.0942919030785561
  1
DRAWING #:
  7
RockwellBold
 11
8.228884696960449
 21
1.197916507720947
 31
0.0
100
AcDbText
 73
     1
  0
TEXT
  5
CD
330
A1
100
AcDbEntity
 67
     1
  8
Default
100
AcDbText
 10
8.213259696960449
 20
0.2296543135270313
 30
0.0
 40
0.0942919030785561
  1
DATE:
  7
RockwellBold
 11
8.213259696960449
 21
0.197916030883789
 31
0.0
100
AcDbText
 73
     1
  0
INSERT
  5
CF
330
A1
100
AcDbEntity
 67
     1
  8
Default
100
AcDbBlockReference
  2
MODEL_0
 10
0.0
 20
0.0
 30
0.0
  0
MTEXT
  5
27A
330
A1
100
AcDbEntity
 67
     1
  8
Default
100
AcDbMText
 10
4.472196578979492
 20
0.4017133712768555
 30
0.0
 40
0.1
 41
3.428046703338623
 46
1.427082538604736
 71
     7
 72
     1
  1
\fMontserrat|b0|i0|p0;\H0.833333x;\lSTEEP SLOPE SEALED ROOF DECK - SELF-\P\fMontserrat|b0|i0|p0;\H1.000000x;\lADHERED MEMBRANE - CONCRETE AND CLAY \P\fMontserrat|b0|i0|p0;\H1.000000x;\lTILE ROOF COVERS\P
  7
Montserrat
 73
     1
 44
1.0
  0
MTEXT
  5
27B
330
A1
100
AcDbEntity
 67
     1
  8
Default
100
AcDbMText
 10
9.526183605194091
 20
0.6592741012573243
 30
0.0
 40
0.1
 41
1.104449272155761
 46
0.851142406463623
 71
     8
 72
     1
  1
\fMontserrat|b0|i0|p0;\H0.833333x;\lF-SRD-6\P\P
  7
Montserrat
 73
     1
 44
1.0
  0
TEXT
  5
27C
330
A1
100
AcDbEntity
 67
     1
  8
Default
100
AcDbText
 10
9.175192844654832
 20
0.2256938094894091
 30
0.0
 40
0.0833333358168602
  1
11/01/2020
  7
Montserrat
 72
     1
 11
9.544240474700927
 21
0.197916030883789
 31
0.0
100
AcDbText
 73
     1
  0
MTEXT
  5
27D
330
A1
100
AcDbEntity
 67
     1
  8
Default
100
AcDbMText
 10
0.2291666865348816
 20
6.143964767456054
 30
0.0
 40
0.1
 41
6.437500774860382
 46
3.634180665016174
 71
     7
 72
     1
  3
\P\fMontserrat|b0|i0|p0;\H0.666667x;\l^I\LGENERAL NOTES:\P\fMontserrat|b0|i0|p0;\H1.000000x;\l1.REFER TO APPLICABLE FORTIFIED HOME STANDARDS FOR ADDITIONAL INFORMATION.\P\fMontserrat|b0|i0|p0;\H1.000000x;\l2.APPLICABLE FOR ROOF PITCH 2:12 OR GREATER.\
  3
P\fMontserrat|b0|i0|p0;\H1.000000x;\l3.REFER TO AND INSTALL IN  ACCORDANCE WITH MANUFACTURER SPECIFICATIONS AND INSTALLATION \P\fMontserrat|b0|i0|p0;\H1.000000x;\lINSTRUCTIONS AND FRSA/TRI FLORIDA HIGH WIND TILE INSTALLATION MANUAL REVISED 5TH EDITIO
  3
N \P\fMontserrat|b0|i0|p0;\H1.000000x;\l(FOR ASCE 7-10) OR 6TH EDITION (FOR ASCE 7-16). REFER TO PRODUCT APPROVAL TO VERIFY \P\fMontserrat|b0|i0|p0;\H1.000000x;\lREQUIRED WIND PRESSURES ARE MET IF APPLICABLE.  \P\fMontserrat|b0|i0|p0;\H1.000000x;\l4.
  3
ADEQUATE ATTIC VENTILATION IS REQUIRED. REFER TO UNDERLAYMENT AND PRIMARY ROOF SYSTEM \P\fMontserrat|b0|i0|p0;\H1.000000x;\lMANUFACTURER'S INSTALLATION INSTRUCTIONS FOR VENTILATION LIMITATIONS. ALSO CHECK WITH \P\fMontserrat|b0|i0|p0;\H1.000000x;\lLO
  3
CAL BUILDING CODES FOR RESTRICTIONS. \P\fMontserrat|b0|i0|p0;\H1.000000x;\l5.FORTIFIED HOME STANDARDS ARE TO BE APPLIED IN CONJUNCTION WITH FEDERAL, STATE, AND \P\fMontserrat|b0|i0|p0;\H1.000000x;\lLOCAL CODES, ORDINANCES AND REGULATIONS IN ADDITION 
  1
TO THE STRUCTURAL DESIGN WHICH IS \P\fMontserrat|b0|i0|p0;\H1.000000x;\lBY OTHERS. IN CASE OF A CONFLICT BETWEEN PROVISIONS, USE WHICHEVER IS MORE STRINGENT. \P\P
  7
Montserrat
 73
     1
 44
1.0
  0
INSERT
  5
282
330
A1
100
AcDbEntity
 67
     1
  8
0
100
AcDbBlockReference
  2
ANNO_0
 10
0.0
 20
0.0
 30
0.0
  0
LEADER
  5
283
330
A1
100
AcDbEntity
 67
     1
  8
Default
 48
0.5
100
AcDbLeader
  3
Standard
 73
     2
 76
     3
 10
3.492039918899536
 20
5.459671974182128
 30
0.0
 10
2.833688020706176
 20
5.08393907546997
 30
0.0
 10
2.633687019348144
 20
5.08393907546997
 30
0.0
340
282
212
2.633687019348144
222
5.08393907546997
232
0.0
1001
ACAD
1000
DSTYLE
1002
{
1070
    41
1040
0.1874999925494194
1070
   341
1005
0
1070
   176
1070
   256
1070
   371
1070
    15
1002
}
  0
INSERT
  5
288
330
A1
100
AcDbEntity
 67
     1
  8
0
100
AcDbBlockReference
  2
ANNO_1
 10
0.0
 20
0.0
 30
0.0
  0
LEADER
  5
289
330
A1
100
AcDbEntity
 67
     1
  8
Default
 48
0.5
100
AcDbLeader
  3
Standard
 73
     2
 76
     3
 10
6.407717227935791
 20
5.847784996032714
 30
0.0
 10
7.02446699142456
 20
8.151510804891586
 30
0.0
 10
7.224466800689697
 20
8.151510804891586
 30
0.0
340
288
212
7.224466800689697
222
8.151510804891586
232
0.0
1001
ACAD
1000
DSTYLE
1002
{
1070
    41
1040
0.1874999925494194
1070
   341
1005
0
1070
   176
1070
   256
1070
   371
1070
    15
1002
}
  0
MTEXT
  5
28A
330
A1
100
AcDbEntity
 67
     1
  8
Default
100
AcDbMText
 10
0.6666666865348816
 20
3.255208015441894
 30
0.0
 40
0.1
 41
2.333333313465118
 46
1.127737522125244
 71
     7
 72
     1
  3
\fMontserrat|b0|i0|p0;\H0.666667x;\l4" MIN. SIDELAPS OR GREATER IF \P\fMontserrat|b0|i0|p0;\H1.000000x;\lSPECIFIED BY MANUFACTURER'S  \P\fMontserrat|b0|i0|p0;\H1.000000x;\lSPECIFICATIONS AND INSTALLATION \P\fMontserrat|b0|i0|p0;\H1.000000x;\lINSTRUCT
  1
IONS AND FRSA/TRI MANUAL \P\fMontserrat|b0|i0|p0;\H1.000000x;\l(SEE GENERAL NOTE #3). \P
  7
Montserrat
 73
     1
 44
1.0
  0
LINE
  5
28C
330
A1
100
AcDbEntity
 67
     1
  8
Default
  6
DASHED
 48
0.375
370
    15
100
AcDbLine
 10
7.557414054870605
 20
5.161874055862426
 30
0.0
 11
7.1174898147583
 21
5.924024105072021
 31
0.0
  0
LINE
  5
28D
330
A1
100
AcDbEntity
 67
     1
  8
0
 60
     1
100
AcDbLine
 10
7.1174898147583
 20
5.924024105072021
 30
0.0
 11
7.557414054870605
 21
5.161874055862426
 31
0.0
  0
LINE
  5
28E
330
A1
100
AcDbEntity
 67
     1
  8
Default
  6
DASHED
 48
0.375
370
    15
100
AcDbLine
 10
8.887210845947265
 20
4.581209897994995
 30
0.0
 11
8.373641014099121
 21
5.375377893447875
 31
0.0
  0
LINE
  5
28F
330
A1
100
AcDbEntity
 67
     1
  8
0
 60
     1
100
AcDbLine
 10
8.373641014099121
 20
5.375377893447875
 30
0.0
 11
8.887210845947265
 21
4.581209897994995
 31
0.0
  0
MTEXT
  5
290
330
A1
100
AcDbEntity
 67
     1
  8
Default
100
AcDbMText
 10
7.977584838867187
 20
6.946690797805786
 30
0.0
 40
0.1
 41
2.95312213897705
 46
0.8333336114883422
 71
     7
 72
     1
  3
\fMontserrat|b0|i0|p0;\H0.666667x;\lREFER TO MANUFACTURER'S SPECIFICATIONS \P\fMontserrat|b0|i0|p0;\H1.000000x;\lAND FRSA/TRI MANUAL (SEE GENERAL NOTE #3) \P\fMontserrat|b0|i0|p0;\H1.000000x;\lFOR REQUIRED OVERLAP AND FOLLOW \P\fMontserrat|b0|i0|p0;\
  1
H1.000000x;\lINSTALLATION INSTRUCTIONS.\P
  7
Montserrat
 73
     1
 44
1.0
  0
INSERT
  5
295
330
A1
100
AcDbEntity
 67
     1
  8
0
100
AcDbBlockReference
  2
ANNO_2
 10
0.0
 20
0.0
 30
0.0
  0
LEADER
  5
296
330
A1
100
AcDbEntity
 67
     1
  8
Default
 48
0.5
100
AcDbLeader
  3
Standard
 73
     2
 76
     3
 10
5.761148929595947
 20
2.886143207550048
 30
0.0
 10
6.093792915344238
 20
2.228125095367431
 30
0.0
 10
6.828029155731201
 20
2.228125095367431
 30
0.0
340
295
212
6.828029155731201
222
2.228125095367431
232
0.0
1001
ACAD
1000
DSTYLE
1002
{
1070
    41
1040
0.1874999925494194
1070
   341
1005
0
1070
   176
1070
   256
1070
   371
1070
    15
1002
}
  0
MTEXT
  5
297
330
A1
100
AcDbEntity
 67
     1
  8
Default
100
AcDbMText
 10
8.517142295837402
 20
6.450940608978271
 30
0.0
 40
0.1
 41
2.5
 46
0.7135417461395264
 71
     7
 72
     1
  1
\fMontserrat|b0|i0|p0;\H0.666667x;\lSTAGGER AND INSTALL END LAPS AS \P\fMontserrat|b0|i0|p0;\H1.000000x;\lSPECIFIED PER FRSA/TRI MANUAL (SEE \P\fMontserrat|b0|i0|p0;\H1.000000x;\lGENERAL NOTE #3).\P
  7
Montserrat
 73
     1
 44
1.0
  0
MTEXT
  5
298
330
A1
100
AcDbEntity
 67
     1
  8
Default
100
AcDbMText
 10
2.968148827552795
 20
0.375
 30
0.0
 40
0.1
 41
2.135308027267456
 46
1.520834445953369
 71
     8
 72
     1
  1
\fMontserrat|b0|i0|p0;\H0.500000x;\lFORTIFIED HOMETM  - HURRICANE (2020)\P\fMontserrat|b0|i0|p0;\H1.000000x;\lFORTIFIED HOMETM  - HIGH WIND (2020)\P\P
  7
Montserrat
 73
     1
 44
1.0
  0
TEXT
  5
299
330
A1
100
AcDbEntity
 67
     1
  8
Default
100
AcDbText
 10
2.213541746139526
 20
1.160807610672699
 30
0.0
 40
0.0754335224628449
  1
%%UAPPLICABLE STANDARDS:
  7
RockwellBold
 11
2.213541746139526
 21
1.135416984558105
 31
0.0
100
AcDbText
 73
     1
  0
IMAGE
  5
29B
330
A1
100
AcDbEntity
 67
     1
  8
Images
160
               140
310
8C0000000100000084000000060000000500000000000000ABAADE3F00000000A8AADE3F000000000000000000000000ABAADE3F00000080A9AAF13F0000000000000000000000C0AAAAFB3F00000080A9AAF13F0000000000000000000000C0AAAAFB3F00000000A8AADE3F000000000000000000000000ABAADE3F000000
310
00A8AADE3F0000000000000000
100
AcDbRasterImage
 90
        0
 10
0.4791667461395264
 20
0.4791660308837891
 30
0.0
 11
0.0010137875101379
 21
0.0
 31
0.0
 12
0.0
 22
0.0010702046629501
 32
0.0
 13
1233.0
 23
584.0
340
29A
 70
    15
280
     0
281
    50
282
    50
283
     0
290
     0
360
29C
 71
     1
 91
        2
 14
-0.5
 24
-0.5
 14
1232.5
 24
583.4999999999999
  0
INSERT
  5
2A4
330
A1
100
AcDbEntity
 67
     1
  8
0
100
AcDbBlockReference
  2
ANNO_3
 10
0.0
 20
0.0
 30
0.0
  0
LEADER
  5
2A5
330
A1
100
AcDbEntity
 67
     1
  8
Default
 48
0.5
100
AcDbLeader
  3
Standard
 72
     1
 73
     2
 76
     7
 10
7.951513683772645
 20
5.713450910843675
 30
0.0
 10
7.947740644332952
 20
6.033648005017312
 30
0.0
 10
7.98601612902712
 20
6.287052440427942
 30
0.0
 10
8.055458253831602
 20
6.48069490576745
 30
0.0
 10
8.145185134722851
 20
6.62160608972772
 30
0.0
 10
8.244314887677319
 20
6.716816681000636
 30
0.0
 10
8.386835780926048
 20
6.78932358813472
 30
0.0
340
2A4
212
8.386835780926048
222
6.78932358813472
232
0.0
1001
ACAD
1000
DSTYLE
1002
{
1070
    41
1040
0.0
1070
   341
1005
2A1
1070
   176
1070
   256
1070
   371
1070
    15
1002
}
  0
INSERT
  5
2AA
330
A1
100
AcDbEntity
 67
     1
  8
0
100
AcDbBlockReference
  2
ANNO_4
 10
0.0
 20
0.0
 30
0.0
  0
LEADER
  5
2AB
330
A1
100
AcDbEntity
 67
     1
  8
Default
 48
0.5
100
AcDbLeader
  3
Standard
 72
     1
 73
     2
 76
     7
 10
7.209574836539104
 20
6.31442706209782
 30
0.0
 10
7.357594709610566
 20
6.74621301110892
 30
0.0
 10
7.486931605497375
 20
7.056942675713798
 30
0.0
 10
7.599745115963742
 20
7.266446260691736
 30
0.0
 10
7.698194832773879
 20
7.394553970822016
 30
0.0
 10
7.784440347691997
 20
7.46109601088392
 30
0.0
 10
7.895649848505854
 20
7.488852012553252
 30
0.0
340
2AA
212
7.895649848505854
222
7.488852012553252
232
0.0
1001
ACAD
1000
DSTYLE
1002
{
1070
    41
1040
0.0
1070
   341
1005
2A1
1070
   176
1070
   256
1070
   371
1070
    15
1002
}
  0
INSERT
  5
2B0
330
A1
100
AcDbEntity
 67
     1
  8
0
100
AcDbBlockReference
  2
ANNO_5
 10
0.0
 20
0.0
 30
0.0
  0
LEADER
  5
2B1
330
A1
100
AcDbEntity
 67
     1
  8
Default
 48
0.5
100
AcDbLeader
  3
Standard
 72
     1
 73
     2
 76
     6
 10
2.875978227006271
 20
4.527152676135301
 30
0.0
 10
2.223550539230927
 20
4.394662003964185
 30
0.0
 10
1.862272352358559
 20
4.283763939049094
 30
0.0
 10
1.686164753948105
 20
4.206131723243743
 30
0.0
 10
1.564199717511655
 20
4.126653354149311
 30
0.0
 10
1.498388906795298
 20
4.04628367582336
 30
0.0
340
2B0
212
1.498388906795298
222
4.04628367582336
232
0.0
1001
ACAD
1000
DSTYLE
1002
{
1070
    41
1040
0.0
1070
   341
1005
2A1
1070
   176
1070
   256
1070
   371
1070
    15
1002
}
  0
LINE
  5
2B2
330
A1
100
AcDbEntity
 67
     1
  8
Default
 48
0.5
370
    15
100
AcDbLine
 10
5.86566686630249
 20
2.911903858184814
 30
0.0
 11
4.060097217559814
 21
2.467924118041992
 31
0.0
  0
LINE
  5
2B3
330
A1
100
AcDbEntity
 67
     1
  8
0
 60
     1
100
AcDbLine
 10
4.060097217559814
 20
2.467924118041992
 30
0.0
 11
5.86566686630249
 21
2.911903858184814
 31
0.0
  0
LINE
  5
2B4
330
A1
100
AcDbEntity
 67
     1
  8
Default
 48
0.5
370
    15
100
AcDbLine
 10
8.727910041809082
 20
3.617435932159423
 30
0.0
 11
10.40482997894287
 21
4.031453132629394
 31
0.0
  0
LINE
  5
2B5
330
A1
100
AcDbEntity
 67
     1
  8
0
 60
     1
100
AcDbLine
 10
10.40482997894287
 20
4.031453132629394
 30
0.0
 11
8.727910041809082
 21
3.617435932159423
 31
0.0
  0
LINE
  5
2B6
330
A1
100
AcDbEntity
 67
     1
  8
Default
  6
DASHED
 48
0.5
370
    15
100
AcDbLine
 10
9.813344001770019
 20
4.849493980407714
 30
0.0
 11
3.708340883255004
 21
3.693764209747314
 31
0.0
  0
LINE
  5
2B7
330
A1
100
AcDbEntity
 67
     1
  8
0
 60
     1
100
AcDbLine
 10
3.708340883255004
 20
3.693764209747314
 30
0.0
 11
9.813344001770019
 21
4.849493980407714
 31
0.0
  0
LINE
  5
2B8
330
A1
100
AcDbEntity
 67
     1
  8
Default
  6
DASHED
 48
0.5
370
    15
100
AcDbLine
 10
3.764700889587402
 20
4.712709903717041
 30
0.0
 11
9.334085464477539
 21
5.514645099639892
 31
0.0
  0
LINE
  5
2B9
330
A1
100
AcDbEntity
 67
     1
  8
0
 60
     1
100
AcDbLine
 10
9.334085464477539
 20
5.514645099639892
 30
0.0
 11
3.764700889587402
 21
4.712709903717041
 31
0.0
  0
LINE
  5
2BA
330
A1
100
AcDbEntity
 67
     1
  8
Default
  6
DASHED
 48
0.5
370
    15
100
AcDbLine
 10
8.855712890625
 20
4.876327037811279
 30
0.0
 11
9.026503562927246
 21
4.609200000762939
 31
0.0
  0
LINE
  5
2BB
330
A1
100
AcDbEntity
 67
     1
  8
0
 60
     1
100
AcDbLine
 10
9.026503562927246
 20
4.609200000762939
 30
0.0
 11
8.855712890625
 21
4.876327037811279
 31
0.0
  0
LINE
  5
2BC
330
A1
100
AcDbEntity
 67
     1
  8
Default
  6
DASHED
 48
0.5
370
    15
100
AcDbLine
 10
9.706639289855957
 20
4.745094060897827
 30
0.0
 11
4.057331085205078
 21
3.641799926757812
 31
0.0
  0
LINE
  5
2BD
330
A1
100
AcDbEntity
 67
     1
  8
0
 60
     1
100
AcDbLine
 10
4.057331085205078
 20
3.641799926757812
 30
0.0
 11
9.706639289855957
 21
4.745094060897827
 31
0.0
  0
ENDSEC
  0
SECTION
  2
OBJECTS
  0
DICTIONARY
  5
C
330
0
100
AcDbDictionary
281
     1
  3
ACAD_CIP_PREVIOUS_PRODUCT_INFO
350
2CE
  3
ACAD_COLOR
350
2C5
  3
ACAD_DETAILVIEWSTYLE
350
2C2
  3
ACAD_GROUP
350
D
  3
ACAD_IMAGE_DICT
350
B5
  3
ACAD_IMAGE_VARS
350
9E
  3
ACAD_LAYOUT
350
1A
  3
ACAD_MATERIAL
350
43
  3
ACAD_MLEADERSTYLE
350
6B
  3
ACAD_MLINESTYLE
350
17
  3
ACAD_PLOTSETTINGS
350
19
  3
ACAD_PLOTSTYLENAME
350
E
  3
ACAD_SCALELIST
350
47
  3
ACAD_SECTIONVIEWSTYLE
350
2C3
  3
ACAD_TABLESTYLE
350
69
  3
ACAD_VISUALSTYLE
350
2A
  3
ACDB_RECOMPOSE_DATA
350
558
  3
AcDbVariableDictionary
350
2BE
  3
AcDsDecomposeData
350
55E
  0
SUN
  5
6D
330
29
100
AcDbSun
 90
        1
290
     0
 63
     7
421
 16777215
 40
1.0
291
     1
 91
  2455826
 92
 54000000
292
     0
 70
     0
 71
   256
280
     1
1001
ACAD
1000
AcDbSavedByObjectVersion
1070
     0
  0
DICTIONARY
  5
2D5
330
2
100
AcDbDictionary
280
     1
281
     1
  3
ACAD_LAYERSTATES
360
2D6
  0
DICTIONARY
  5
514
330
1F
100
AcDbDictionary
280
     1
281
     1
  3
ACAD_SORTENTS
360
515
  0
IMAGEDEF_REACTOR
  5
32A
330
329
100
AcDbRasterImageDefReactor
 90
        2
330
329
  0
IMAGEDEF_REACTOR
  5
34F
330
34E
100
AcDbRasterImageDefReactor
 90
        2
330
34E
  0
SUN
  5
A6
330
A5
100
AcDbSun
 90
        1
290
     0
 63
     7
421
 16777215
 40
1.0
291
     1
 91
  2455826
 92
 54000000
292
     0
 70
     0
 71
   256
280
     1
1001
ACAD
1000
AcDbSavedByObjectVersion
1070
     0
  0
IMAGEDEF_REACTOR
  5
B8
330
B7
100
AcDbRasterImageDefReactor
 90
        2
330
B7
  0
IMAGEDEF_REACTOR
  5
29C
330
29B
100
AcDbRasterImageDefReactor
 90
        2
330
29B
  0
XRECORD
  5
2CE
102
{ACAD_REACTORS
330
C
102
}
330
C
100
AcDbXrecord
280
     1
300
ACD
300
2020
300
ACD_F_S_TL
  0
DICTIONARY
  5
2C5
102
{ACAD_REACTORS
330
C
102
}
330
C
100
AcDbDictionary
281
     1
  0
DICTIONARY
  5
2C2
102
{ACAD_REACTORS
330
C
102
}
330
C
100
AcDbDictionary
281
     1
  3
Imperial24
350
2C7
  0
DICTIONARY
  5
D
102
{ACAD_REACTORS
330
C
102
}
330
C
100
AcDbDictionary
281
     1
  0
DICTIONARY
  5
B5
102
{ACAD_REACTORS
330
C
102
}
330
C
100
AcDbDictionary
281
     1
  3
F-SRD-6.images\000.png
350
B6
  3
F-SRD-6.images\001.png
350
29A
  0
RASTERVARIABLES
  5
9E
102
{ACAD_REACTORS
330
C
102
}
330
C
100
AcDbRasterVariables
 90
        0
 70
     0
 71
     1
 72
     5
  0
DICTIONARY
  5
1A
102
{ACAD_REACTORS
330
C
102
}
330
C
100
AcDbDictionary
281
     1
  3
Model
350
22
  3
Page 2
350
A2
  0
DICTIONARY
  5
43
102
{ACAD_REACTORS
330
C
102
}
330
C
100
AcDbDictionary
281
     1
  3
ByBlock
350
45
  3
ByLayer
350
44
  3
Global
350
46
  0
DICTIONARY
  5
6B
102
{ACAD_REACTORS
330
C
102
}
330
C
100
AcDbDictionary
281
     1
  3
Standard
350
6C
  0
DICTIONARY
  5
17
102
{ACAD_REACTORS
330
C
102
}
330
C
100
AcDbDictionary
281
     1
  3
Standard
350
18
  0
DICTIONARY
  5
19
102
{ACAD_REACTORS
330
C
102
}
330
C
100
AcDbDictionary
281
     1
  0
ACDBDICTIONARYWDFLT
  5
E
102
{ACAD_REACTORS
330
C
102
}
330
C
100
AcDbDictionary
281
     1
  3
Normal
350
F
100
AcDbDictionaryWithDefault
340
F
  0
DICTIONARY
  5
47
102
{ACAD_REACTORS
330
C
102
}
330
C
100
AcDbDictionary
281
     1
  3
A0
350
48
  3
A1
350
49
  3
A2
350
4A
  3
A3
350
4B
  3
A4
350
4C
  3
A5
350
4D
  3
A6
350
4E
  3
A7
350
4F
  3
A8
350
50
  3
A9
350
51
  3
B0
350
52
  3
B1
350
53
  3
B2
350
54
  3
B3
350
55
  3
B4
350
56
  3
B5
350
57
  3
B6
350
58
  3
B7
350
59
  3
B8
350
5A
  3
B9
350
5B
  3
C0
350
5C
  3
C1
350
5D
  3
C2
350
5E
  3
C3
350
5F
  3
C4
350
60
  3
C5
350
61
  3
C6
350
62
  3
C7
350
63
  3
C8
350
64
  3
C9
350
65
  3
D0
350
66
  3
D1
350
67
  3
D2
350
68
  0
DICTIONARY
  5
2C3
102
{ACAD_REACTORS
330
C
102
}
330
C
100
AcDbDictionary
281
     1
  3
Imperial24
350
2C6
  0
DICTIONARY
  5
69
102
{ACAD_REACTORS
330
C
102
}
330
C
100
AcDbDictionary
281
     1
  3
Standard
350
6A
  0
DICTIONARY
  5
2A
102
{ACAD_REACTORS
330
C
102
}
330
C
100
AcDbDictionary
281
     1
  3
2dWireframe
350
2F
  3
Basic
350
32
  3
Brighten
350
36
  3
ColorChange
350
3A
  3
Conceptual
350
34
  3
Dim
350
35
  3
EdgeColorOff
350
3D
  3
Facepattern
350
39
  3
Flat
350
2B
  3
FlatWithEdges
350
2C
  3
Gouraud
350
2D
  3
GouraudWithEdges
350
2E
  3
Hidden
350
31
  3
JitterOff
350
3B
  3
Linepattern
350
38
  3
OverhangOff
350
3C
  3
Realistic
350
33
  3
Shaded
350
42
  3
Shaded with edges
350
41
  3
Shades of Gray
350
3E
  3
Sketchy
350
3F
  3
Thicken
350
37
  3
Wireframe
350
30
  3
X-Ray
350
40
  0
XRECORD
  5
558
102
{ACAD_REACTORS
330
C
102
}
330
C
100
AcDbXrecord
280
     1
 90
        1
330
6A
  0
DICTIONARY
  5
2BE
102
{ACAD_REACTORS
330
C
102
}
330
C
100
AcDbDictionary
281
     1
  3
CANNOSCALE
350
2BF
  3
CMLEADERSTYLE
350
2C1
  3
CTABLESTYLE
350
2C0
  3
CVIEWDETAILSTYLE
350
2CF
  3
CVIEWSECTIONSTYLE
350
2D0
  0
DICTIONARY
  5
55E
102
{ACAD_REACTORS
330
C
102
}
330
C
100
AcDbDictionary
281
     1
  3
AcDsRecords
350
560
  3
AcDsSchemas
350
55F
1001
ACAD
1070
     2
  0
DICTIONARY
  5
2D6
102
{ACAD_REACTORS
330
2D5
102
}
330
2D5
100
AcDbDictionary
281
     1
  0
SORTENTSTABLE
  5
515
102
{ACAD_REACTORS
330
514
102
}
330
514
100
AcDbSortentsTable
330
1F
331
33D
  5
4F6
331
33E
  5
4F7
331
33F
  5
4F8
331
340
  5
4F9
331
341
  5
4FA
331
342
  5
4FB
331
343
  5
4FC
331
344
  5
4FD
331
345
  5
4FE
331
346
  5
4FF
331
347
  5
500
331
348
  5
501
331
349
  5
502
331
34A
  5
503
331
34B
  5
504
331
34C
  5
505
331
34D
  5
506
331
34E
  5
507
331
350
  5
508
331
351
  5
509
331
352
  5
50A
331
353
  5
50B
331
354
  5
50C
331
355
  5
50D
331
356
  5
50E
331
357
  5
50F
331
358
  5
510
331
359
  5
511
331
35A
  5
512
331
35B
  5
513
331
371
  5
341
331
372
  5
342
331
373
  5
343
331
374
  5
344
331
375
  5
345
331
376
  5
346
331
377
  5
347
331
378
  5
348
331
379
  5
349
331
37A
  5
34A
331
37B
  5
34B
331
37C
  5
34C
331
37D
  5
34D
331
37E
  5
34E
331
37F
  5
350
331
380
  5
351
331
381
  5
352
331
382
  5
353
331
383
  5
354
331
384
  5
355
331
385
  5
356
331
386
  5
357
331
387
  5
358
331
388
  5
359
331
389
  5
35A
331
38A
  5
35B
331
38B
  5
36D
331
38C
  5
36E
331
38D
  5
36F
331
38E
  5
370
331
38F
  5
371
331
390
  5
372
331
391
  5
373
331
392
  5
374
331
393
  5
375
331
394
  5
376
331
395
  5
377
331
396
  5
378
331
397
  5
379
331
398
  5
37A
331
399
  5
37B
331
39A
  5
37C
331
39B
  5
37D
331
39C
  5
37E
331
39D
  5
37F
331
39E
  5
380
331
39F
  5
381
331
3A0
  5
382
331
3A1
  5
383
331
3A2
  5
384
331
3A3
  5
385
331
3A4
  5
386
331
3A5
  5
387
331
3A6
  5
388
331
3A7
  5
389
331
3A8
  5
38A
331
3A9
  5
38B
331
3AA
  5
38C
331
3AB
  5
38D
331
3AC
  5
38E
331
3AD
  5
38F
331
3AE
  5
390
331
3AF
  5
391
331
3B0
  5
392
331
3B1
  5
393
331
3B2
  5
394
331
3B3
  5
395
331
3B4
  5
396
331
3B5
  5
397
331
3B6
  5
398
331
3B7
  5
399
331
3B8
  5
39A
331
3B9
  5
39B
331
3BA
  5
39C
331
3BB
  5
39D
331
3BC
  5
39E
331
3BD
  5
39F
331
3BE
  5
3A0
331
3BF
  5
3A1
331
3C0
  5
3A2
331
3C1
  5
3A3
331
3C2
  5
3A4
331
3C3
  5
3A5
331
3C4
  5
3A6
331
3C5
  5
3A7
331
3C6
  5
3A8
331
3C7
  5
3A9
331
3C8
  5
3AA
331
3C9
  5
3AB
331
3CA
  5
3AC
331
3CB
  5
3AD
331
3CC
  5
3AE
331
3CD
  5
3AF
331
3CE
  5
3B0
331
3CF
  5
3B1
331
3D0
  5
3B2
331
3D1
  5
3B3
331
3D2
  5
3B4
331
3D3
  5
3B5
331
3D4
  5
3B6
331
3D5
  5
3B7
331
3D6
  5
3B8
331
3D7
  5
3B9
331
3D8
  5
3BA
331
3D9
  5
3BB
331
3DA
  5
3BC
331
3DB
  5
3BD
331
3DC
  5
3BE
331
3DD
  5
3BF
331
3DE
  5
3C0
331
3DF
  5
3C1
331
3E0
  5
3C2
331
3E1
  5
3C3
331
3E2
  5
3C4
331
3E3
  5
3C5
331
3E4
  5
3C6
331
3E5
  5
3C7
331
3E6
  5
3C8
331
3E7
  5
3C9
331
3E8
  5
3CA
331
3E9
  5
3CB
331
3EA
  5
3CC
331
3EB
  5
3CD
331
3EC
  5
3CE
331
3ED
  5
3CF
331
3EE
  5
3D0
331
3EF
  5
3D1
331
3F0
  5
3D2
331
3F1
  5
3D3
331
3F2
  5
3D4
331
3F3
  5
3D5
331
3F4
  5
3D6
331
3F5
  5
3D7
331
3F6
  5
3D8
331
3F7
  5
3D9
331
3F8
  5
3DA
331
3F9
  5
3DB
331
3FA
  5
3DC
331
3FB
  5
3DD
331
3FC
  5
3DE
331
3FD
  5
3DF
331
3FE
  5
3E0
331
3FF
  5
3E1
331
400
  5
3E2
331
401
  5
3E3
331
402
  5
3E4
331
403
  5
3E5
331
404
  5
3E6
331
405
  5
3E7
331
406
  5
3E8
331
407
  5
3E9
331
408
  5
3EA
331
409
  5
3EB
331
40A
  5
3EC
331
40B
  5
3ED
331
40C
  5
3EE
331
40D
  5
3EF
331
40E
  5
3F0
331
40F
  5
3F1
331
410
  5
3F2
331
411
  5
3F3
331
412
  5
3F4
331
413
  5
3F5
331
414
  5
3F6
331
415
  5
3F7
331
416
  5
3F8
331
417
  5
3F9
331
418
  5
3FA
331
419
  5
3FB
331
41A
  5
3FC
331
41B
  5
3FD
331
41C
  5
3FE
331
41D
  5
3FF
331
41E
  5
400
331
41F
  5
401
331
420
  5
402
331
421
  5
403
331
422
  5
404
331
423
  5
405
331
424
  5
406
331
425
  5
407
331
426
  5
408
331
427
  5
409
331
428
  5
40A
331
429
  5
40B
331
42A
  5
40C
331
42B
  5
40D
331
42C
  5
40E
331
42D
  5
40F
331
42E
  5
410
331
42F
  5
411
331
430
  5
412
331
431
  5
413
331
432
  5
414
331
433
  5
415
331
434
  5
416
331
435
  5
417
331
436
  5
418
331
437
  5
419
331
438
  5
41A
331
439
  5
41B
331
43A
  5
41C
331
43B
  5
41D
331
43C
  5
41E
331
43D
  5
41F
331
43E
  5
420
331
43F
  5
421
331
440
  5
422
331
441
  5
423
331
442
  5
424
331
443
  5
425
331
444
  5
426
331
445
  5
427
331
446
  5
428
331
447
  5
429
331
448
  5
42A
331
449
  5
42B
331
44A
  5
42C
331
44B
  5
42D
331
44C
  5
42E
331
44D
  5
42F
331
44E
  5
430
331
44F
  5
431
331
450
  5
432
331
451
  5
433
331
452
  5
434
331
453
  5
435
331
454
  5
436
331
455
  5
437
331
456
  5
438
331
457
  5
439
331
458
  5
43A
331
459
  5
43B
331
45A
  5
43C
331
45B
  5
43D
331
45C
  5
43E
331
45D
  5
43F
331
45E
  5
440
331
45F
  5
441
331
460
  5
442
331
461
  5
443
331
462
  5
444
331
463
  5
445
331
464
  5
446
331
465
  5
447
331
466
  5
448
331
467
  5
449
331
468
  5
44A
331
469
  5
44B
331
46A
  5
44C
331
46B
  5
44D
331
46C
  5
44E
331
46D
  5
44F
331
46E
  5
450
331
46F
  5
451
331
470
  5
452
331
471
  5
453
331
472
  5
454
331
473
  5
455
331
474
  5
456
331
475
  5
457
331
476
  5
458
331
477
  5
459
331
478
  5
45A
331
479
  5
45B
331
47A
  5
45C
331
47B
  5
45D
331
47C
  5
45E
331
47D
  5
45F
331
47E
  5
460
331
47F
  5
461
331
480
  5
462
331
481
  5
463
331
482
  5
464
331
483
  5
465
331
484
  5
466
331
485
  5
467
331
486
  5
468
331
487
  5
469
331
488
  5
46A
331
489
  5
46B
331
48A
  5
46C
331
48B
  5
46D
331
48C
  5
46E
331
48D
  5
46F
331
48E
  5
470
331
48F
  5
471
331
490
  5
472
331
491
  5
473
331
492
  5
474
331
493
  5
475
331
494
  5
476
331
495
  5
477
331
496
  5
478
331
497
  5
479
331
498
  5
47A
331
499
  5
47B
331
49A
  5
47C
331
49B
  5
47D
331
49C
  5
47E
331
49D
  5
47F
331
49E
  5
480
331
49F
  5
481
331
4A0
  5
482
331
4A1
  5
483
331
4A2
  5
484
331
4A3
  5
485
331
4A4
  5
486
331
4A5
  5
487
331
4A6
  5
488
331
4A7
  5
489
331
4A8
  5
48A
331
4A9
  5
48B
331
4AA
  5
48C
331
4AB
  5
48D
331
4AC
  5
48E
331
4AD
  5
48F
331
4AE
  5
490
331
4AF
  5
491
331
4B0
  5
492
331
4B1
  5
493
331
4B2
  5
494
331
4B3
  5
495
331
4B4
  5
496
331
4B5
  5
497
331
4B6
  5
498
331
4B7
  5
499
331
4B8
  5
49A
331
4B9
  5
49B
331
4BA
  5
49C
331
4BB
  5
49D
331
4BC
  5
49E
331
4BD
  5
49F
331
4BE
  5
4A0
331
4BF
  5
4A1
331
4C0
  5
4A2
331
4C1
  5
4A3
331
4C2
  5
4A4
331
4C3
  5
4A5
331
4C4
  5
4A6
331
4C5
  5
4A7
331
4C6
  5
4A8
331
4C7
  5
4A9
331
4C8
  5
4AA
331
4C9
  5
4AB
331
4CA
  5
4AC
331
4CB
  5
4AD
331
4CC
  5
4AE
331
4CD
  5
4AF
331
4CE
  5
4B0
331
4CF
  5
4B1
331
4D0
  5
4B2
331
4D1
  5
4B3
331
4D2
  5
4B4
331
4D3
  5
4B5
331
4D4
  5
4B6
331
4D5
  5
4B7
331
4D6
  5
4B8
331
4D7
  5
4B9
331
4D8
  5
4BA
331
4D9
  5
4BB
331
4DA
  5
4BC
331
4DB
  5
4BD
331
4DC
  5
4BE
331
4DD
  5
4BF
331
4DE
  5
4C0
331
4DF
  5
4C1
331
4E0
  5
4C2
331
4E1
  5
4C3
331
4E2
  5
4C4
331
4E3
  5
4C5
331
4E4
  5
4C6
331
4E5
  5
4C7
331
4E6
  5
4C8
331
4E7
  5
4C9
331
4E8
  5
4CA
331
4E9
  5
4CB
331
4EA
  5
4CC
331
4EB
  5
4CD
331
4EC
  5
4CE
331
4ED
  5
4CF
331
4EE
  5
4D0
331
4EF
  5
4D1
331
4F0
  5
4D2
331
4F1
  5
4D3
331
4F2
  5
4D4
331
4F3
  5
4D5
331
4F4
  5
4D6
331
4F5
  5
4D7
331
4F6
  5
4D8
331
4F7
  5
4D9
331
4F8
  5
4DA
331
4F9
  5
4DB
331
4FA
  5
4DC
331
4FB
  5
4DD
331
4FC
  5
4DE
331
4FD
  5
4DF
331
4FE
  5
4E0
331
4FF
  5
4E1
331
500
  5
4E2
331
501
  5
4E3
331
502
  5
4E4
331
503
  5
4E5
331
504
  5
4E6
331
505
  5
4E7
331
506
  5
4E8
331
507
  5
4E9
331
508
  5
4EA
331
509
  5
4EB
331
50A
  5
4EC
331
50B
  5
4ED
331
50C
  5
4EE
331
50D
  5
4EF
331
50E
  5
4F0
331
50F
  5
4F1
331
510
  5
4F2
331
511
  5
4F3
331
512
  5
4F4
331
513
  5
4F5
  0
ACDBDETAILVIEWSTYLE
  5
2C7
102
{ACAD_XDICTIONARY
360
593
102
}
102
{ACAD_REACTORS
330
2C2
102
}
330
2C2
100
AcDbModelDocViewStyle
 70
     0
  3
Imperial24
290
     0
100
AcDbDetailViewStyle
 70
     0
 71
     0
 90
        3
 71
     1
340
11
 62
   256
 40
0.24
340
0
 62
   256
 40
0.24
300

 40
0.36
280
     3
 71
     2
340
16
 90
       25
 62
   256
 71
     3
340
11
 62
   256
 40
0.24
 90
        1
 40
0.75
 90
        1
300
%<\AcVar ViewType \f "%tc1">% %<\AcVar ViewDetailId>%\PSCALE %<\AcVar ViewScale \f "%sn">%
 71
     4
340
16
 90
       25
 62
   256
340
16
 90
       25
 62
   256
280
     0
  0
IMAGEDEF
  5
B6
102
{ACAD_REACTORS
330
B5
330
B8
330
32A
102
}
330
B5
100
AcDbRasterImageDef
 90
        0
  1
F-SRD-6.images\000.png
 10
1233.0
 20
584.0
 11
0.0008110300081103
 21
0.0008110300081103
280
     1
281
     0
  0
IMAGEDEF
  5
29A
102
{ACAD_REACTORS
330
B5
330
29C
330
34F
102
}
330
B5
100
AcDbRasterImageDef
 90
        0
  1
F-SRD-6.images\001.png
 10
1233.0
 20
584.0
 11
0.0008110300081103
 21
0.0008110300081103
280
     1
281
     0
  0
LAYOUT
  5
22
102
{ACAD_REACTORS
330
1A
102
}
330
1A
100
AcDbPlotSettings
  1

  2
none_device
  4
Letter_(8.50_x_11.00_Inches)
  6

 40
6.349999999999999
 41
6.349999999999999
 42
6.350005079999999
 43
6.350005079999999
 44
215.9
 45
279.4
 46
0.0
 47
0.0
 48
0.0
 49
0.0
140
0.0
141
0.0
142
1.0
143
1.0
 70
  1712
 72
     0
 73
     0
 74
     0
  7

 75
     0
147
1.0
 76
     0
 77
     2
 78
   300
148
0.0
149
0.0
100
AcDbLayout
  1
Model
 70
     1
 71
     0
 10
0.0
 20
0.0
 11
12.0
 21
9.0
 12
0.0
 22
0.0
 32
0.0
 14
1.000000000000000E+20
 24
1.000000000000000E+20
 34
1.000000000000000E+20
 15
-1.000000000000000E+20
 25
-1.000000000000000E+20
 35
-1.000000000000000E+20
146
0.0
 13
0.0
 23
0.0
 33
0.0
 16
1.0
 26
0.0
 36
0.0
 17
0.0
 27
1.0
 37
0.0
 76
     0
330
1F
331
29
  0
LAYOUT
  5
A2
102
{ACAD_REACTORS
330
1A
102
}
330
1A
100
AcDbPlotSettings
  1

  2
none_device
  4
ANSI_A_(11.00_x_8.50_Inches)
  6

 40
6.349999999999999
 41
19.05
 42
6.350005079999999
 43
19.05000254
 44
279.4
 45
215.9
 46
-6.349999999999999
 47
-19.05
 48
0.0
 49
0.0
140
0.0
141
0.0
142
1.0
143
1.0
 70
   688
 72
     0
 73
     0
 74
     5
  7

 75
    16
147
1.0
 76
     0
 77
     2
 78
   300
148
0.0
149
0.0
100
AcDbLayout
  1
Page 2
 70
     1
 71
     1
 10
-0.25
 20
-0.25
 11
10.75
 21
8.25
 12
0.0
 22
0.0
 32
0.0
 14
0.1666666716337204
 24
0.1666660308837891
 34
0.0
 15
10.83333396911621
 25
8.333333328366279
 35
0.0
146
0.0
 13
0.0
 23
0.0
 33
0.0
 16
1.0
 26
0.0
 36
0.0
 17
0.0
 27
1.0
 37
0.0
 76
     0
330
A1
331
A5
  0
MATERIAL
  5
45
102
{ACAD_REACTORS
330
43
102
}
330
43
100
AcDbMaterial
  1
ByBlock
 73
     1
 78
     1
172
     1
176
     1
270
     1
274
     1
  0
MATERIAL
  5
44
102
{ACAD_REACTORS
330
43
102
}
330
43
100
AcDbMaterial
  1
ByLayer
 73
     1
 78
     1
172
     1
176
     1
270
     1
274
     1
  0
MATERIAL
  5
46
102
{ACAD_REACTORS
330
43
102
}
330
43
100
AcDbMaterial
  1
Global
 73
     1
 78
     1
172
     1
176
     1
270
     1
274
     1
  0
MLEADERSTYLE
  5
6C
102
{ACAD_REACTORS
330
6B
102
}
330
6B
100
AcDbMLeaderStyle
179
     2
170
     2
171
     1
172
     0
 90
        2
 40
0.0
 41
0.0
173
     1
 91
-1056964608
340
14
 92
       -2
290
     1
 42
0.09
291
     1
 43
0.36
  3
Standard
 44
0.18
300

342
11
174
     1
178
     6
175
     1
176
     0
 93
-1056964608
 45
0.18
292
     0
297
     0
 46
0.18
 94
-1056964608
 47
1.0
 49
1.0
140
1.0
293
     1
141
0.0
294
     1
177
     0
142
1.0
295
     0
296
     0
143
0.125
271
     0
272
     9
273
     9
  0
MLINESTYLE
  5
18
102
{ACAD_REACTORS
330
17
102
}
330
17
100
AcDbMlineStyle
  2
STANDARD
 70
     0
  3

 62
   256
 51
90.0
 52
90.0
 71
     2
 49
0.5
 62
   256
  6
BYLAYER
 49
-0.5
 62
   256
  6
BYLAYER
  0
ACDBPLACEHOLDER
  5
F
102
{ACAD_REACTORS
330
E
102
}
330
E
  0
SCALE
  5
48
102
{ACAD_REACTORS
330
47
102
}
330
47
100
AcDbScale
 70
     0
300
1:1
140
1.0
141
1.0
290
     1
  0
SCALE
  5
49
102
{ACAD_REACTORS
330
47
102
}
330
47
100
AcDbScale
 70
     0
300
1:2
140
1.0
141
2.0
290
     0
  0
SCALE
  5
4A
102
{ACAD_REACTORS
330
47
102
}
330
47
100
AcDbScale
 70
     0
300
1:4
140
1.0
141
4.0
290
     0
  0
SCALE
  5
4B
102
{ACAD_REACTORS
330
47
102
}
330
47
100
AcDbScale
 70
     0
300
1:5
140
1.0
141
5.0
290
     0
  0
SCALE
  5
4C
102
{ACAD_REACTORS
330
47
102
}
330
47
100
AcDbScale
 70
     0
300
1:8
140
1.0
141
8.0
290
     0
  0
SCALE
  5
4D
102
{ACAD_REACTORS
330
47
102
}
330
47
100
AcDbScale
 70
     0
300
1:10
140
1.0
141
10.0
290
     0
  0
SCALE
  5
4E
102
{ACAD_REACTORS
330
47
102
}
330
47
100
AcDbScale
 70
     0
300
1:16
140
1.0
141
16.0
290
     0
  0
SCALE
  5
4F
102
{ACAD_REACTORS
330
47
102
}
330
47
100
AcDbScale
 70
     0
300
1:20
140
1.0
141
20.0
290
     0
  0
SCALE
  5
50
102
{ACAD_REACTORS
330
47
102
}
330
47
100
AcDbScale
 70
     0
300
1:30
140
1.0
141
30.0
290
     0
  0
SCALE
  5
51
102
{ACAD_REACTORS
330
47
102
}
330
47
100
AcDbScale
 70
     0
300
1:40
140
1.0
141
40.0
290
     0
  0
SCALE
  5
52
102
{ACAD_REACTORS
330
47
102
}
330
47
100
AcDbScale
 70
     0
300
1:50
140
1.0
141
50.0
290
     0
  0
SCALE
  5
53
102
{ACAD_REACTORS
330
47
102
}
330
47
100
AcDbScale
 70
     0
300
1:100
140
1.0
141
100.0
290
     0
  0
SCALE
  5
54
102
{ACAD_REACTORS
330
47
102
}
330
47
100
AcDbScale
 70
     0
300
2:1
140
2.0
141
1.0
290
     0
  0
SCALE
  5
55
102
{ACAD_REACTORS
330
47
102
}
330
47
100
AcDbScale
 70
     0
300
4:1
140
4.0
141
1.0
290
     0
  0
SCALE
  5
56
102
{ACAD_REACTORS
330
47
102
}
330
47
100
AcDbScale
 70
     0
300
8:1
140
8.0
141
1.0
290
     0
  0
SCALE
  5
57
102
{ACAD_REACTORS
330
47
102
}
330
47
100
AcDbScale
 70
     0
300
10:1
140
10.0
141
1.0
290
     0
  0
SCALE
  5
58
102
{ACAD_REACTORS
330
47
102
}
330
47
100
AcDbScale
 70
     0
300
100:1
140
100.0
141
1.0
290
     0
  0
SCALE
  5
59
102
{ACAD_REACTORS
330
47
102
}
330
47
100
AcDbScale
 70
     0
300
1/128" = 1'-0"
140
0.0078125
141
12.0
290
     0
  0
SCALE
  5
5A
102
{ACAD_REACTORS
330
47
102
}
330
47
100
AcDbScale
 70
     0
300
1/64" = 1'-0"
140
0.015625
141
12.0
290
     0
  0
SCALE
  5
5B
102
{ACAD_REACTORS
330
47
102
}
330
47
100
AcDbScale
 70
     0
300
1/32" = 1'-0"
140
0.03125
141
12.0
290
     0
  0
SCALE
  5
5C
102
{ACAD_REACTORS
330
47
102
}
330
47
100
AcDbScale
 70
     0
300
1/16" = 1'-0"
140
0.0625
141
12.0
290
     0
  0
SCALE
  5
5D
102
{ACAD_REACTORS
330
47
102
}
330
47
100
AcDbScale
 70
     0
300
3/32" = 1'-0"
140
0.09375
141
12.0
290
     0
  0
SCALE
  5
5E
102
{ACAD_REACTORS
330
47
102
}
330
47
100
AcDbScale
 70
     0
300
1/8" = 1'-0"
140
0.125
141
12.0
290
     0
  0
SCALE
  5
5F
102
{ACAD_REACTORS
330
47
102
}
330
47
100
AcDbScale
 70
     0
300
3/16" = 1'-0"
140
0.1875
141
12.0
290
     0
  0
SCALE
  5
60
102
{ACAD_REACTORS
330
47
102
}
330
47
100
AcDbScale
 70
     0
300
1/4" = 1'-0"
140
0.25
141
12.0
290
     0
  0
SCALE
  5
61
102
{ACAD_REACTORS
330
47
102
}
330
47
100
AcDbScale
 70
     0
300
3/8" = 1'-0"
140
0.375
141
12.0
290
     0
  0
SCALE
  5
62
102
{ACAD_REACTORS
330
47
102
}
330
47
100
AcDbScale
 70
     0
300
1/2" = 1'-0"
140
0.5
141
12.0
290
     0
  0
SCALE
  5
63
102
{ACAD_REACTORS
330
47
102
}
330
47
100
AcDbScale
 70
     0
300
3/4" = 1'-0"
140
0.75
141
12.0
290
     0
  0
SCALE
  5
64
102
{ACAD_REACTORS
330
47
102
}
330
47
100
AcDbScale
 70
     0
300
1" = 1'-0"
140
1.0
141
12.0
290
     0
  0
SCALE
  5
65
102
{ACAD_REACTORS
330
47
102
}
330
47
100
AcDbScale
 70
     0
300
1-1/2" = 1'-0"
140
1.5
141
12.0
290
     0
  0
SCALE
  5
66
102
{ACAD_REACTORS
330
47
102
}
330
47
100
AcDbScale
 70
     0
300
3" = 1'-0"
140
3.0
141
12.0
290
     0
  0
SCALE
  5
67
102
{ACAD_REACTORS
330
47
102
}
330
47
100
AcDbScale
 70
     0
300
6" = 1'-0"
140
6.0
141
12.0
290
     0
  0
SCALE
  5
68
102
{ACAD_REACTORS
330
47
102
}
330
47
100
AcDbScale
 70
     0
300
1'-0" = 1'-0"
140
12.0
141
12.0
290
     0
  0
ACDBSECTIONVIEWSTYLE
  5
2C6
102
{ACAD_XDICTIONARY
360
591
102
}
102
{ACAD_REACTORS
330
2C3
102
}
330
2C3
100
AcDbModelDocViewStyle
 70
     0
  3
Imperial24
290
     0
100
AcDbSectionViewStyle
 70
     0
 71
     0
 90
       78
 71
     1
340
11
 62
   256
 40
0.24
340
0
340
0
 62
   256
 40
0.24
300
I, O, Q, S, X, Z
 40
0.48
 90
        3
 40
0.18
 90
        1
 71
     2
340
16
 90
       25
 62
   256
340
16
 90
       50
 62
   256
 40
0.24
 40
0.0
 40
0.24
 71
     3
340
11
 62
   256
 40
0.24
 90
        1
 40
0.75
 90
        1
300
%<\AcVar ViewType \f "%tc1">% %<\AcVar ViewSectionStartId>%-%<\AcVar ViewSectionEndId>%\PSCALE %<\AcVar ViewScale \f "%sn">%
 71
     4
 62
   256
 62
   257
300
ANSI31
 40
1.0
 90
        0
290
     0
290
     0
 90
        6
 40
0.0
 40
1.570796326794896
 40
0.2617993877991494
 40
1.308996938995747
 40
-0.2617993877991494
 40
1.832595714594046
  0
TABLESTYLE
  5
6A
102
{ACAD_XDICTIONARY
360
556
102
}
102
{ACAD_REACTORS
330
69
102
}
330
69
100
AcDbTableStyle
280
     0
  3
Standard
 70
     0
 71
     0
 40
0.06
 41
0.06
280
     0
281
     0
  7
Standard
140
0.18
170
     2
 62
     0
 63
     7
283
     0
 90
        4
 91
        0
  1

274
    -2
284
     1
 64
     0
275
    -2
285
     1
 65
     0
276
    -2
286
     1
 66
     0
277
    -2
287
     1
 67
     0
278
    -2
288
     1
 68
     0
279
    -2
289
     1
 69
     0
  7
Standard
140
0.25
170
     5
 62
     0
 63
     7
283
     0
 90
        4
 91
        0
  1

274
    -2
284
     1
 64
     0
275
    -2
285
     1
 65
     0
276
    -2
286
     1
 66
     0
277
    -2
287
     1
 67
     0
278
    -2
288
     1
 68
     0
279
    -2
289
     1
 69
     0
  7
Standard
140
0.18
170
     5
 62
     0
 63
     7
283
     0
 90
        4
 91
        0
  1

274
    -2
284
     1
 64
     0
275
    -2
285
     1
 65
     0
276
    -2
286
     1
 66
     0
277
    -2
287
     1
 67
     0
278
    -2
288
     1
 68
     0
279
    -2
289
     1
 69
     0
  0
VISUALSTYLE
  5
2F
102
{ACAD_XDICTIONARY
360
569
102
}
102
{ACAD_REACTORS
330
2A
102
}
330
2A
100
AcDbVisualStyle
  2
2dWireframe
 70
     4
177
     2
291
     0
 71
     0
176
     1
 72
     2
176
     1
 73
     0
176
     1
 90
        0
176
     1
 40
0.6
176
     1
 41
30.0
176
     1
 63
     7
421
 16777215
176
     1
 74
     1
176
     1
 91
        4
176
     1
 64
     7
176
     1
 65
   257
176
     1
 75
     1
176
     1
175
     1
176
     1
 42
1.0
176
     1
 92
        0
176
     1
 66
   257
176
     1
 43
1.0
176
     1
 76
     1
176
     1
 77
     6
176
     1
 78
     2
176
     1
 67
     7
176
     1
 79
     5
176
     1
170
     0
176
     1
171
     0
176
     1
290
     0
176
     1
 93
        1
176
     1
 44
0.0
176
     1
173
     0
176
     1
1001
ACAD
1000
AcDbSavedByObjectVersion
1070
     0
  0
VISUALSTYLE
  5
32
102
{ACAD_XDICTIONARY
360
56F
102
}
102
{ACAD_REACTORS
330
2A
102
}
330
2A
100
AcDbVisualStyle
  2
Basic
 70
     7
177
     2
291
     1
 71
     1
176
     1
 72
     0
176
     1
 73
     1
176
     1
 90
        0
176
     1
 40
0.6
176
     1
 41
30.0
176
     1
 63
     7
421
 16777215
176
     1
 74
     0
176
     1
 91
        4
176
     1
 64
     7
176
     1
 65
   257
176
     1
 75
     1
176
     1
175
     1
176
     1
 42
1.0
176
     1
 92
        8
176
     1
 66
     7
176
     1
 43
1.0
176
     1
 76
     1
176
     1
 77
     6
176
     1
 78
     2
176
     1
 67
     7
176
     1
 79
     5
176
     1
170
     0
176
     1
171
     0
176
     1
290
     0
176
     1
 93
        1
176
     1
 44
0.0
176
     1
173
     0
176
     1
1001
ACAD
1000
AcDbSavedByObjectVersion
1070
     0
  0
VISUALSTYLE
  5
36
102
{ACAD_XDICTIONARY
360
577
102
}
102
{ACAD_REACTORS
330
2A
102
}
330
2A
100
AcDbVisualStyle
  2
Brighten
 70
    12
177
     2
291
     1
 71
     2
176
     1
 72
     2
176
     1
 73
     0
176
     1
 90
        0
176
     1
 40
0.6
176
     1
 41
30.0
176
     1
 63
     7
421
 16777215
176
     1
 74
     1
176
     1
 91
        4
176
     1
 64
     7
176
     1
 65
   257
176
     1
 75
     1
176
     1
175
     1
176
     1
 42
1.0
176
     1
 92
        8
176
     1
 66
     7
176
     1
 43
1.0
176
     1
 76
     1
176
     1
 77
     6
176
     1
 78
     2
176
     1
 67
     7
176
     1
 79
     5
176
     1
170
     0
176
     1
171
     0
176
     1
290
     0
176
     1
 93
        1
176
     1
 44
50.0
176
     1
173
     0
176
     1
1001
ACAD
1000
AcDbSavedByObjectVersion
1070
     0
  0
VISUALSTYLE
  5
3A
102
{ACAD_XDICTIONARY
360
57F
102
}
102
{ACAD_REACTORS
330
2A
102
}
330
2A
100
AcDbVisualStyle
  2
ColorChange
 70
    16
177
     2
291
     1
 71
     2
176
     1
 72
     2
176
     1
 73
     3
176
     1
 90
        0
176
     1
 40
0.6
176
     1
 41
30.0
176
     1
 63
     8
421
  8421504
176
     1
 74
     1
176
     1
 91
        4
176
     1
 64
     7
176
     1
 65
   257
176
     1
 75
     1
176
     1
175
     1
176
     1
 42
1.0
176
     1
 92
        8
176
     1
 66
     8
424
  8421504
176
     1
 43
1.0
176
     1
 76
     1
176
     1
 77
     6
176
     1
 78
     2
176
     1
 67
     7
176
     1
 79
     5
176
     1
170
     0
176
     1
171
     0
176
     1
290
     0
176
     1
 93
        1
176
     1
 44
0.0
176
     1
173
     0
176
     1
1001
ACAD
1000
AcDbSavedByObjectVersion
1070
     0
  0
VISUALSTYLE
  5
34
102
{ACAD_XDICTIONARY
360
573
102
}
102
{ACAD_REACTORS
330
2A
102
}
330
2A
100
AcDbVisualStyle
  2
Conceptual
 70
     9
177
     2
291
     0
 71
     3
176
     1
 72
     2
176
     1
 73
     0
176
     1
 90
        0
176
     1
 40
0.6
176
     1
 41
30.0
176
     1
 63
     7
421
 16777215
176
     1
 74
     2
176
     1
 91
        2
176
     1
 64
     7
176
     1
 65
   257
176
     1
 75
     1
176
     1
175
     1
176
     1
 42
179.0
176
     1
 92
        8
176
     1
 66
     7
176
     1
 43
1.0
176
     1
 76
     1
176
     1
 77
     6
176
     1
 78
     2
176
     1
 67
     7
176
     1
 79
     3
176
     1
170
     0
176
     1
171
     0
176
     1
290
     0
176
     1
 93
        1
176
     1
 44
0.0
176
     1
173
     0
176
     1
1001
ACAD
1000
AcDbSavedByObjectVersion
1070
     0
  0
VISUALSTYLE
  5
35
102
{ACAD_XDICTIONARY
360
575
102
}
102
{ACAD_REACTORS
330
2A
102
}
330
2A
100
AcDbVisualStyle
  2
Dim
 70
    11
177
     2
291
     1
 71
     2
176
     1
 72
     2
176
     1
 73
     0
176
     1
 90
        0
176
     1
 40
0.6
176
     1
 41
30.0
176
     1
 63
     7
421
 16777215
176
     1
 74
     1
176
     1
 91
        4
176
     1
 64
     7
176
     1
 65
   257
176
     1
 75
     1
176
     1
175
     1
176
     1
 42
1.0
176
     1
 92
        8
176
     1
 66
     7
176
     1
 43
1.0
176
     1
 76
     1
176
     1
 77
     6
176
     1
 78
     2
176
     1
 67
     7
176
     1
 79
     5
176
     1
170
     0
176
     1
171
     0
176
     1
290
     0
176
     1
 93
        1
176
     1
 44
-50.0
176
     1
173
     0
176
     1
1001
ACAD
1000
AcDbSavedByObjectVersion
1070
     0
  0
VISUALSTYLE
  5
3D
102
{ACAD_XDICTIONARY
360
585
102
}
102
{ACAD_REACTORS
330
2A
102
}
330
2A
100
AcDbVisualStyle
  2
EdgeColorOff
 70
    22
177
     2
291
     1
 71
     2
176
     0
 72
     2
176
     0
 73
     0
176
     0
 90
        0
176
     0
 40
0.6
176
     0
 41
30.0
176
     0
 63
     7
421
 16777215
176
     0
 74
     1
176
     0
 91
        4
176
     0
 64
     7
176
     0
 65
   257
176
     0
 75
     1
176
     0
175
     1
176
     0
 42
1.0
176
     0
 92
        8
176
     2
 66
     7
176
     0
 43
1.0
176
     0
 76
     1
176
     0
 77
     6
176
     0
 78
     2
176
     0
 67
     7
176
     0
 79
     5
176
     0
170
     0
176
     0
171
     0
176
     0
290
     0
176
     0
 93
        1
176
     0
 44
0.0
176
     0
173
     0
176
     0
1001
ACAD
1000
AcDbSavedByObjectVersion
1070
     0
  0
VISUALSTYLE
  5
39
102
{ACAD_XDICTIONARY
360
57D
102
}
102
{ACAD_REACTORS
330
2A
102
}
330
2A
100
AcDbVisualStyle
  2
Facepattern
 70
    15
177
     2
291
     1
 71
     2
176
     1
 72
     2
176
     1
 73
     0
176
     1
 90
        0
176
     1
 40
0.6
176
     1
 41
30.0
176
     1
 63
     7
421
 16777215
176
     1
 74
     1
176
     1
 91
        4
176
     1
 64
     7
176
     1
 65
   257
176
     1
 75
     1
176
     1
175
     1
176
     1
 42
1.0
176
     1
 92
        8
176
     1
 66
     7
176
     1
 43
1.0
176
     1
 76
     1
176
     1
 77
     6
176
     1
 78
     2
176
     1
 67
     7
176
     1
 79
     5
176
     1
170
     0
176
     1
171
     0
176
     1
290
     0
176
     1
 93
        1
176
     1
 44
0.0
176
     1
173
     0
176
     1
1001
ACAD
1000
AcDbSavedByObjectVersion
1070
     0
  0
VISUALSTYLE
  5
2B
102
{ACAD_XDICTIONARY
360
561
102
}
102
{ACAD_REACTORS
330
2A
102
}
330
2A
100
AcDbVisualStyle
  2
Flat
 70
     0
177
     2
291
     1
 71
     2
176
     1
 72
     1
176
     1
 73
     1
176
     1
 90
        2
176
     1
 40
0.6
176
     1
 41
30.0
176
     1
 63
     7
421
 16777215
176
     1
 74
     0
176
     1
 91
        0
176
     1
 64
     7
176
     1
 65
   257
176
     1
 75
     1
176
     1
175
     1
176
     1
 42
1.0
176
     1
 92
        8
176
     1
 66
     7
176
     1
 43
1.0
176
     1
 76
     1
176
     1
 77
     6
176
     1
 78
     2
176
     1
 67
     7
176
     1
 79
     5
176
     1
170
     0
176
     1
171
     0
176
     1
290
     0
176
     1
 93
       13
176
     1
 44
0.0
176
     1
173
     0
176
     1
1001
ACAD
1000
AcDbSavedByObjectVersion
1070
     0
  0
VISUALSTYLE
  5
2C
102
{ACAD_XDICTIONARY
360
563
102
}
102
{ACAD_REACTORS
330
2A
102
}
330
2A
100
AcDbVisualStyle
  2
FlatWithEdges
 70
     1
177
     2
291
     1
 71
     2
176
     1
 72
     1
176
     1
 73
     1
176
     1
 90
        2
176
     1
 40
0.6
176
     1
 41
30.0
176
     1
 63
     7
421
 16777215
176
     1
 74
     1
176
     1
 91
        0
176
     1
 64
     7
176
     1
 65
   257
176
     1
 75
     1
176
     1
175
     1
176
     1
 42
1.0
176
     1
 92
        0
176
     1
 66
   257
176
     1
 43
1.0
176
     1
 76
     1
176
     1
 77
     6
176
     1
 78
     2
176
     1
 67
     7
176
     1
 79
     5
176
     1
170
     0
176
     1
171
     0
176
     1
290
     0
176
     1
 93
       13
176
     1
 44
0.0
176
     1
173
     0
176
     1
1001
ACAD
1000
AcDbSavedByObjectVersion
1070
     0
  0
VISUALSTYLE
  5
2D
102
{ACAD_XDICTIONARY
360
565
102
}
102
{ACAD_REACTORS
330
2A
102
}
330
2A
100
AcDbVisualStyle
  2
Gouraud
 70
     2
177
     2
291
     1
 71
     2
176
     1
 72
     2
176
     1
 73
     1
176
     1
 90
        2
176
     1
 40
0.6
176
     1
 41
30.0
176
     1
 63
     7
421
 16777215
176
     1
 74
     0
176
     1
 91
        0
176
     1
 64
     7
176
     1
 65
   257
176
     1
 75
     1
176
     1
175
     1
176
     1
 42
1.0
176
     1
 92
        0
176
     1
 66
     7
176
     1
 43
1.0
176
     1
 76
     1
176
     1
 77
     6
176
     1
 78
     2
176
     1
 67
     7
176
     1
 79
     5
176
     1
170
     0
176
     1
171
     0
176
     1
290
     0
176
     1
 93
       13
176
     1
 44
0.0
176
     1
173
     0
176
     1
1001
ACAD
1000
AcDbSavedByObjectVersion
1070
     0
  0
VISUALSTYLE
  5
2E
102
{ACAD_XDICTIONARY
360
567
102
}
102
{ACAD_REACTORS
330
2A
102
}
330
2A
100
AcDbVisualStyle
  2
GouraudWithEdges
 70
     3
177
     2
291
     1
 71
     2
176
     1
 72
     2
176
     1
 73
     1
176
     1
 90
        2
176
     1
 40
0.6
176
     1
 41
30.0
176
     1
 63
     7
421
 16777215
176
     1
 74
     1
176
     1
 91
        0
176
     1
 64
     7
176
     1
 65
   257
176
     1
 75
     1
176
     1
175
     1
176
     1
 42
1.0
176
     1
 92
        0
176
     1
 66
   257
176
     1
 43
1.0
176
     1
 76
     1
176
     1
 77
     6
176
     1
 78
     2
176
     1
 67
     7
176
     1
 79
     5
176
     1
170
     0
176
     1
171
     0
176
     1
290
     0
176
     1
 93
       13
176
     1
 44
0.0
176
     1
173
     0
176
     1
1001
ACAD
1000
AcDbSavedByObjectVersion
1070
     0
  0
VISUALSTYLE
  5
31
102
{ACAD_XDICTIONARY
360
56D
102
}
102
{ACAD_REACTORS
330
2A
102
}
330
2A
100
AcDbVisualStyle
  2
Hidden
 70
     6
177
     2
291
     0
 71
     1
176
     1
 72
     2
176
     1
 73
     2
176
     1
 90
        0
176
     1
 40
0.6
176
     1
 41
30.0
176
     1
 63
     7
421
 16777215
176
     1
 74
     2
176
     1
 91
        2
176
     1
 64
     7
176
     1
 65
   257
176
     1
 75
     2
176
     1
175
     1
176
     1
 42
40.0
176
     1
 92
        0
176
     1
 66
   257
176
     1
 43
1.0
176
     1
 76
     1
176
     1
 77
     6
176
     1
 78
     2
176
     1
 67
     7
176
     1
 79
     3
176
     1
170
     0
176
     1
171
     0
176
     1
290
     0
176
     1
 93
        1
176
     1
 44
0.0
176
     1
173
     0
176
     1
1001
ACAD
1000
AcDbSavedByObjectVersion
1070
     0
  0
VISUALSTYLE
  5
3B
102
{ACAD_XDICTIONARY
360
581
102
}
102
{ACAD_REACTORS
330
2A
102
}
330
2A
100
AcDbVisualStyle
  2
JitterOff
 70
    20
177
     2
291
     1
 71
     2
176
     0
 72
     2
176
     0
 73
     0
176
     0
 90
        0
176
     0
 40
0.6
176
     0
 41
30.0
176
     0
 63
     7
421
 16777215
176
     0
 74
     1
176
     0
 91
        4
176
     0
 64
     7
176
     0
 65
   257
176
     0
 75
     1
176
     0
175
     1
176
     0
 42
1.0
176
     0
 92
       10
176
     2
 66
     7
176
     0
 43
1.0
176
     0
 76
     1
176
     0
 77
     6
176
     0
 78
     2
176
     0
 67
     7
176
     0
 79
     5
176
     0
170
     0
176
     0
171
     0
176
     0
290
     0
176
     0
 93
        1
176
     0
 44
0.0
176
     0
173
     0
176
     0
1001
ACAD
1000
AcDbSavedByObjectVersion
1070
     0
  0
VISUALSTYLE
  5
38
102
{ACAD_XDICTIONARY
360
57B
102
}
102
{ACAD_REACTORS
330
2A
102
}
330
2A
100
AcDbVisualStyle
  2
Linepattern
 70
    14
177
     2
291
     1
 71
     2
176
     1
 72
     2
176
     1
 73
     0
176
     1
 90
        0
176
     1
 40
0.6
176
     1
 41
30.0
176
     1
 63
     7
421
 16777215
176
     1
 74
     1
176
     1
 91
        4
176
     1
 64
     7
176
     1
 65
   257
176
     1
 75
     7
176
     1
175
     7
176
     1
 42
1.0
176
     1
 92
        8
176
     1
 66
     7
176
     1
 43
1.0
176
     1
 76
     1
176
     1
 77
     6
176
     1
 78
     2
176
     1
 67
     7
176
     1
 79
     5
176
     1
170
     0
176
     1
171
     0
176
     1
290
     0
176
     1
 93
        1
176
     1
 44
0.0
176
     1
173
     0
176
     1
1001
ACAD
1000
AcDbSavedByObjectVersion
1070
     0
  0
VISUALSTYLE
  5
3C
102
{ACAD_XDICTIONARY
360
583
102
}
102
{ACAD_REACTORS
330
2A
102
}
330
2A
100
AcDbVisualStyle
  2
OverhangOff
 70
    21
177
     2
291
     1
 71
     2
176
     0
 72
     2
176
     0
 73
     0
176
     0
 90
        0
176
     0
 40
0.6
176
     0
 41
30.0
176
     0
 63
     7
421
 16777215
176
     0
 74
     1
176
     0
 91
        4
176
     0
 64
     7
176
     0
 65
   257
176
     0
 75
     1
176
     0
175
     1
176
     0
 42
1.0
176
     0
 92
        9
176
     2
 66
     7
176
     0
 43
1.0
176
     0
 76
     1
176
     0
 77
     6
176
     0
 78
     2
176
     0
 67
     7
176
     0
 79
     5
176
     0
170
     0
176
     0
171
     0
176
     0
290
     0
176
     0
 93
        1
176
     0
 44
0.0
176
     0
173
     0
176
     0
1001
ACAD
1000
AcDbSavedByObjectVersion
1070
     0
  0
VISUALSTYLE
  5
33
102
{ACAD_XDICTIONARY
360
571
102
}
102
{ACAD_REACTORS
330
2A
102
}
330
2A
100
AcDbVisualStyle
  2
Realistic
 70
     8
177
     2
291
     0
 71
     2
176
     1
 72
     3
176
     1
 73
     0
176
     1
 90
        2
176
     1
 40
0.6
176
     1
 41
30.0
176
     1
 63
     7
421
 16777215
176
     1
 74
     0
176
     1
 91
        0
176
     1
 64
     7
176
     1
 65
   257
176
     1
 75
     1
176
     1
175
     1
176
     1
 42
1.0
176
     1
 92
        8
176
     1
 66
   257
176
     1
 43
1.0
176
     1
 76
     1
176
     1
 77
     6
176
     1
 78
     2
176
     1
 67
     7
176
     1
 79
     3
176
     1
170
     0
176
     1
171
     0
176
     1
290
     0
176
     1
 93
       13
176
     1
 44
0.0
176
     1
173
     0
176
     1
1001
ACAD
1000
AcDbSavedByObjectVersion
1070
     0
  0
VISUALSTYLE
  5
42
102
{ACAD_XDICTIONARY
360
58F
102
}
102
{ACAD_REACTORS
330
2A
102
}
330
2A
100
AcDbVisualStyle
  2
Shaded
 70
    27
177
     2
291
     0
 71
     2
176
     1
 72
     2
176
     1
 73
     1
176
     1
 90
        2
176
     1
 40
0.6
176
     1
 41
30.0
176
     1
 63
     7
421
 16777215
176
     1
 74
     0
176
     1
 91
        4
176
     1
 64
     7
176
     1
 65
   257
176
     1
 75
     1
176
     1
175
     1
176
     1
 42
1.0
176
     1
 92
        8
176
     1
 66
   257
176
     1
 43
1.0
176
     1
 76
     1
176
     1
 77
     6
176
     1
 78
     2
176
     1
 67
     8
425
  7895160
176
     1
 79
     3
176
     1
170
     0
176
     1
171
     0
176
     1
290
     0
176
     1
 93
        5
176
     1
 44
0.0
176
     1
173
     0
176
     1
1001
ACAD
1000
AcDbSavedByObjectVersion
1070
     0
  0
VISUALSTYLE
  5
41
102
{ACAD_XDICTIONARY
360
58D
102
}
102
{ACAD_REACTORS
330
2A
102
}
330
2A
100
AcDbVisualStyle
  2
Shaded with edges
 70
    26
177
     2
291
     0
 71
     2
176
     1
 72
     2
176
     1
 73
     1
176
     1
 90
        2
176
     1
 40
0.6
176
     1
 41
30.0
176
     1
 63
     7
421
 16777215
176
     1
 74
     1
176
     1
 91
        2
176
     1
 64
     7
176
     1
 65
   257
176
     1
 75
     2
176
     1
175
     1
176
     1
 42
1.0
176
     1
 92
        8
176
     1
 66
   257
176
     1
 43
1.0
176
     1
 76
     1
176
     1
 77
     6
176
     1
 78
     2
176
     1
 67
     7
176
     1
 79
     3
176
     1
170
     0
176
     1
171
     0
176
     1
290
     0
176
     1
 93
        5
176
     1
 44
0.0
176
     1
173
     0
176
     1
1001
ACAD
1000
AcDbSavedByObjectVersion
1070
     0
  0
VISUALSTYLE
  5
3E
102
{ACAD_XDICTIONARY
360
587
102
}
102
{ACAD_REACTORS
330
2A
102
}
330
2A
100
AcDbVisualStyle
  2
Shades of Gray
 70
    23
177
     2
291
     0
 71
     2
176
     1
 72
     2
176
     1
 73
     3
176
     1
 90
        0
176
     1
 40
0.6
176
     1
 41
30.0
176
     1
 63
     7
421
 16777215
176
     1
 74
     2
176
     1
 91
        2
176
     1
 64
     7
176
     1
 65
     7
176
     1
 75
     1
176
     1
175
     1
176
     1
 42
40.0
176
     1
 92
        8
176
     1
 66
     7
176
     1
 43
1.0
176
     1
 76
     1
176
     1
 77
     6
176
     1
 78
     2
176
     1
 67
     7
176
     1
 79
     3
176
     1
170
     0
176
     1
171
     0
176
     1
290
     0
176
     1
 93
        1
176
     1
 44
0.0
176
     1
173
     0
176
     1
1001
ACAD
1000
AcDbSavedByObjectVersion
1070
     0
  0
VISUALSTYLE
  5
3F
102
{ACAD_XDICTIONARY
360
589
102
}
102
{ACAD_REACTORS
330
2A
102
}
330
2A
100
AcDbVisualStyle
  2
Sketchy
 70
    24
177
     2
291
     0
 71
     1
176
     1
 72
     2
176
     1
 73
     2
176
     1
 90
        0
176
     1
 40
0.6
176
     1
 41
30.0
176
     1
 63
     7
421
 16777215
176
     1
 74
     2
176
     1
 91
        2
176
     1
 64
     7
176
     1
 65
     7
176
     1
 75
     1
176
     1
175
     1
176
     1
 42
40.0
176
     1
 92
       11
176
     1
 66
     7
176
     1
 43
1.0
176
     1
 76
     1
176
     1
 77
     6
176
     1
 78
     2
176
     1
 67
     7
176
     1
 79
     6
176
     1
170
     0
176
     1
171
     0
176
     1
290
     0
176
     1
 93
        1
176
     1
 44
0.0
176
     1
173
     0
176
     1
1001
ACAD
1000
AcDbSavedByObjectVersion
1070
     0
  0
VISUALSTYLE
  5
37
102
{ACAD_XDICTIONARY
360
579
102
}
102
{ACAD_REACTORS
330
2A
102
}
330
2A
100
AcDbVisualStyle
  2
Thicken
 70
    13
177
     2
291
     1
 71
     2
176
     1
 72
     2
176
     1
 73
     0
176
     1
 90
        0
176
     1
 40
0.6
176
     1
 41
30.0
176
     1
 63
     7
421
 16777215
176
     1
 74
     1
176
     1
 91
        4
176
     1
 64
     7
176
     1
 65
   257
176
     1
 75
     1
176
     1
175
     1
176
     1
 42
1.0
176
     1
 92
       12
176
     1
 66
     7
176
     1
 43
1.0
176
     1
 76
     1
176
     1
 77
     6
176
     1
 78
     2
176
     1
 67
     7
176
     1
 79
     5
176
     1
170
     0
176
     1
171
     0
176
     1
290
     0
176
     1
 93
        1
176
     1
 44
0.0
176
     1
173
     0
176
     1
1001
ACAD
1000
AcDbSavedByObjectVersion
1070
     0
  0
VISUALSTYLE
  5
30
102
{ACAD_XDICTIONARY
360
56B
102
}
102
{ACAD_REACTORS
330
2A
102
}
330
2A
100
AcDbVisualStyle
  2
Wireframe
 70
     5
177
     2
291
     0
 71
     0
176
     1
 72
     2
176
     1
 73
     0
176
     1
 90
        0
176
     1
 40
0.6
176
     1
 41
30.0
176
     1
 63
     7
421
 16777215
176
     1
 74
     1
176
     1
 91
        4
176
     1
 64
     7
176
     1
 65
   257
176
     1
 75
     1
176
     1
175
     1
176
     1
 42
1.0
176
     1
 92
        0
176
     1
 66
   257
176
     1
 43
1.0
176
     1
 76
     1
176
     1
 77
     6
176
     1
 78
     2
176
     1
 67
     7
176
     1
 79
     3
176
     1
170
     0
176
     1
171
     0
176
     1
290
     0
176
     1
 93
        1
176
     1
 44
0.0
176
     1
173
     0
176
     1
1001
ACAD
1000
AcDbSavedByObjectVersion
1070
     0
  0
VISUALSTYLE
  5
40
102
{ACAD_XDICTIONARY
360
58B
102
}
102
{ACAD_REACTORS
330
2A
102
}
330
2A
100
AcDbVisualStyle
  2
X-Ray
 70
    25
177
     2
291
     0
 71
     2
176
     1
 72
     2
176
     1
 73
     1
176
     1
 90
        1
176
     1
 40
0.5
176
     1
 41
30.0
176
     1
 63
     7
421
 16777215
176
     1
 74
     1
176
     1
 91
        0
176
     1
 64
     7
176
     1
 65
   257
176
     1
 75
     1
176
     1
175
     1
176
     1
 42
1.0
176
     1
 92
        8
176
     1
 66
     7
176
     1
 43
1.0
176
     1
 76
     1
176
     1
 77
     6
176
     1
 78
     2
176
     1
 67
     7
176
     1
 79
     3
176
     1
170
     0
176
     1
171
     0
176
     1
290
     0
176
     1
 93
       13
176
     1
 44
0.0
176
     1
173
     0
176
     1
1001
ACAD
1000
AcDbSavedByObjectVersion
1070
     0
  0
DICTIONARYVAR
  5
2BF
102
{ACAD_REACTORS
330
2BE
102
}
330
2BE
100
DictionaryVariables
280
     0
  1
1:1
  0
DICTIONARYVAR
  5
2C1
102
{ACAD_REACTORS
330
2BE
102
}
330
2BE
100
DictionaryVariables
280
     0
  1
STANDARD
  0
DICTIONARYVAR
  5
2C0
102
{ACAD_REACTORS
330
2BE
102
}
330
2BE
100
DictionaryVariables
280
     0
  1
STANDARD
  0
DICTIONARYVAR
  5
2CF
102
{ACAD_REACTORS
330
2BE
102
}
330
2BE
100
DictionaryVariables
280
     0
  1
Imperial24
  0
DICTIONARYVAR
  5
2D0
102
{ACAD_REACTORS
330
2BE
102
}
330
2BE
100
DictionaryVariables
280
     0
  1
Imperial24
  0
DICTIONARY
  5
560
102
{ACAD_REACTORS
330
55E
102
}
330
55E
100
AcDbDictionary
281
     1
  0
DICTIONARY
  5
55F
102
{ACAD_REACTORS
330
55E
102
}
330
55E
100
AcDbDictionary
281
     1
  3
1615554078352
350
559
  3
1615554078368
350
55A
  3
1615554078384
350
55B
  3
1615554078400
350
55C
  3
1615554078416
350
55D
  0
DICTIONARY
  5
593
330
2C7
100
AcDbDictionary
280
     1
281
     1
  3
ACAD_XREC_ROUNDTRIP
360
594
  0
DICTIONARY
  5
591
330
2C6
100
AcDbDictionary
280
     1
281
     1
  3
ACAD_XREC_ROUNDTRIP
360
592
  0
DICTIONARY
  5
556
330
6A
100
AcDbDictionary
280
     1
281
     1
  3
ACAD_ROUNDTRIP_2008_TABLESTYLE_CELLSTYLEMAP
360
557
  0
DICTIONARY
  5
569
330
2F
100
AcDbDictionary
280
     1
281
     1
  3
ACAD_XREC_ROUNDTRIP
360
56A
  0
DICTIONARY
  5
56F
330
32
100
AcDbDictionary
280
     1
281
     1
  3
ACAD_XREC_ROUNDTRIP
360
570
  0
DICTIONARY
  5
577
330
36
100
AcDbDictionary
280
     1
281
     1
  3
ACAD_XREC_ROUNDTRIP
360
578
  0
DICTIONARY
  5
57F
330
3A
100
AcDbDictionary
280
     1
281
     1
  3
ACAD_XREC_ROUNDTRIP
360
580
  0
DICTIONARY
  5
573
330
34
100
AcDbDictionary
280
     1
281
     1
  3
ACAD_XREC_ROUNDTRIP
360
574
  0
DICTIONARY
  5
575
330
35
100
AcDbDictionary
280
     1
281
     1
  3
ACAD_XREC_ROUNDTRIP
360
576
  0
DICTIONARY
  5
585
330
3D
100
AcDbDictionary
280
     1
281
     1
  3
ACAD_XREC_ROUNDTRIP
360
586
  0
DICTIONARY
  5
57D
330
39
100
AcDbDictionary
280
     1
281
     1
  3
ACAD_XREC_ROUNDTRIP
360
57E
  0
DICTIONARY
  5
561
330
2B
100
AcDbDictionary
280
     1
281
     1
  3
ACAD_XREC_ROUNDTRIP
360
562
  0
DICTIONARY
  5
563
330
2C
100
AcDbDictionary
280
     1
281
     1
  3
ACAD_XREC_ROUNDTRIP
360
564
  0
DICTIONARY
  5
565
330
2D
100
AcDbDictionary
280
     1
281
     1
  3
ACAD_XREC_ROUNDTRIP
360
566
  0
DICTIONARY
  5
567
330
2E
100
AcDbDictionary
280
     1
281
     1
  3
ACAD_XREC_ROUNDTRIP
360
568
  0
DICTIONARY
  5
56D
330
31
100
AcDbDictionary
280
     1
281
     1
  3
ACAD_XREC_ROUNDTRIP
360
56E
  0
DICTIONARY
  5
581
330
3B
100
AcDbDictionary
280
     1
281
     1
  3
ACAD_XREC_ROUNDTRIP
360
582
  0
DICTIONARY
  5
57B
330
38
100
AcDbDictionary
280
     1
281
     1
  3
ACAD_XREC_ROUNDTRIP
360
57C
  0
DICTIONARY
  5
583
330
3C
100
AcDbDictionary
280
     1
281
     1
  3
ACAD_XREC_ROUNDTRIP
360
584
  0
DICTIONARY
  5
571
330
33
100
AcDbDictionary
280
     1
281
     1
  3
ACAD_XREC_ROUNDTRIP
360
572
  0
DICTIONARY
  5
58F
330
42
100
AcDbDictionary
280
     1
281
     1
  3
ACAD_XREC_ROUNDTRIP
360
590
  0
DICTIONARY
  5
58D
330
41
100
AcDbDictionary
280
     1
281
     1
  3
ACAD_XREC_ROUNDTRIP
360
58E
  0
DICTIONARY
  5
587
330
3E
100
AcDbDictionary
280
     1
281
     1
  3
ACAD_XREC_ROUNDTRIP
360
588
  0
DICTIONARY
  5
589
330
3F
100
AcDbDictionary
280
     1
281
     1
  3
ACAD_XREC_ROUNDTRIP
360
58A
  0
DICTIONARY
  5
579
330
37
100
AcDbDictionary
280
     1
281
     1
  3
ACAD_XREC_ROUNDTRIP
360
57A
  0
DICTIONARY
  5
56B
330
30
100
AcDbDictionary
280
     1
281
     1
  3
ACAD_XREC_ROUNDTRIP
360
56C
  0
DICTIONARY
  5
58B
330
40
100
AcDbDictionary
280
     1
281
     1
  3
ACAD_XREC_ROUNDTRIP
360
58C
  0
XRECORD
  5
559
102
{ACAD_REACTORS
330
55F
102
}
330
55F
100
AcDbXrecord
280
     1
  1
AcDb_Thumbnail_Schema
102
{ATTRRECORD
341
55A
  2
AcDbDs::TreatedAsObjectData
280
     1
291
     1
102
ATTRRECORD}
102
{ATTRRECORD
341
55B
  2
AcDbDs::Legacy
280
     1
291
     1
102
ATTRRECORD}
  2
AcDbDs::ID
280
    10
 91
        8
102
{ATTRRECORD
341
55C
  2
AcDs:Indexable
280
     1
291
     1
102
ATTRRECORD}
102
{ATTRRECORD
341
55D
  2
AcDbDs::HandleAttribute
280
     7
282
     1
102
ATTRRECORD}
  2
Thumbnail_Data
280
    15
 91
        0
  0
XRECORD
  5
55A
102
{ACAD_REACTORS
330
55F
102
}
330
55F
100
AcDbXrecord
280
     1
  1
AcDbDs::TreatedAsObjectDataSchema
  2
AcDbDs::TreatedAsObjectData
280
     1
 91
        0
  0
XRECORD
  5
55B
102
{ACAD_REACTORS
330
55F
102
}
330
55F
100
AcDbXrecord
280
     1
  1
AcDbDs::LegacySchema
  2
AcDbDs::Legacy
280
     1
 91
        0
  0
XRECORD
  5
55C
102
{ACAD_REACTORS
330
55F
102
}
330
55F
100
AcDbXrecord
280
     1
  1
AcDbDs::IndexedPropertySchema
  2
AcDs:Indexable
280
     1
 91
        0
  0
XRECORD
  5
55D
102
{ACAD_REACTORS
330
55F
102
}
330
55F
100
AcDbXrecord
280
     1
  1
AcDbDs::HandleAttributeSchema
  2
AcDbDs::HandleAttribute
280
     7
 91
        1
284
     1
  0
XRECORD
  5
594
102
{ACAD_REACTORS
330
593
102
}
330
593
100
AcDbXrecord
280
     1
102
DISPLAYNAME
  1
Imperial24
102
FLAGS
 90
        0
  0
XRECORD
  5
592
102
{ACAD_REACTORS
330
591
102
}
330
591
100
AcDbXrecord
280
     1
102
DISPLAYNAME
  1
Imperial24
102
FLAGS
 90
        0
  0
CELLSTYLEMAP
  5
557
102
{ACAD_REACTORS
330
556
102
}
330
556
100
AcDbCellStyleMap
 90
        3
300
CELLSTYLE
  1
TABLEFORMAT_BEGIN
 90
        5
170
     1
 91
        0
 92
    32768
 62
   257
 93
        1
300
CONTENTFORMAT
  1
CONTENTFORMAT_BEGIN
 90
        0
 91
        0
 92
        4
 93
        0
300

 40
0.0
140
1.0
 94
        5
 62
     0
340
11
144
0.25
309
CONTENTFORMAT_END
171
     1
301
MARGIN
  1
CELLMARGIN_BEGIN
 40
0.06
 40
0.06
 40
0.06
 40
0.06
 40
0.06
 40
0.06
309
CELLMARGIN_END
 94
        6
 95
        1
302
GRIDFORMAT
  1
GRIDFORMAT_BEGIN
 90
        0
 91
        1
 62
     0
 92
       -2
340
14
 93
        0
 40
0.045
309
GRIDFORMAT_END
 95
        2
302
GRIDFORMAT
  1
GRIDFORMAT_BEGIN
 90
        0
 91
        1
 62
     0
 92
       -2
340
14
 93
        0
 40
0.045
309
GRIDFORMAT_END
 95
        4
302
GRIDFORMAT
  1
GRIDFORMAT_BEGIN
 90
        0
 91
        1
 62
     0
 92
       -2
340
14
 93
        0
 40
0.045
309
GRIDFORMAT_END
 95
        8
302
GRIDFORMAT
  1
GRIDFORMAT_BEGIN
 90
        0
 91
        1
 62
     0
 92
       -2
340
14
 93
        0
 40
0.045
309
GRIDFORMAT_END
 95
       16
302
GRIDFORMAT
  1
GRIDFORMAT_BEGIN
 90
        0
 91
        1
 62
     0
 92
       -2
340
14
 93
        0
 40
0.045
309
GRIDFORMAT_END
 95
       32
302
GRIDFORMAT
  1
GRIDFORMAT_BEGIN
 90
        0
 91
        1
 62
     0
 92
       -2
340
14
 93
        0
 40
0.045
309
GRIDFORMAT_END
309
TABLEFORMAT_END
  1
CELLSTYLE_BEGIN
 90
        1
 91
        1
300
_TITLE
309
CELLSTYLE_END
300
CELLSTYLE
  1
TABLEFORMAT_BEGIN
 90
        5
170
     1
 91
        0
 92
        0
 62
   257
 93
        1
300
CONTENTFORMAT
  1
CONTENTFORMAT_BEGIN
 90
        0
 91
        0
 92
        4
 93
        0
300

 40
0.0
140
1.0
 94
        5
 62
     0
340
11
144
0.18
309
CONTENTFORMAT_END
171
     1
301
MARGIN
  1
CELLMARGIN_BEGIN
 40
0.06
 40
0.06
 40
0.06
 40
0.06
 40
0.06
 40
0.06
309
CELLMARGIN_END
 94
        6
 95
        1
302
GRIDFORMAT
  1
GRIDFORMAT_BEGIN
 90
        0
 91
        1
 62
     0
 92
       -2
340
14
 93
        0
 40
0.045
309
GRIDFORMAT_END
 95
        2
302
GRIDFORMAT
  1
GRIDFORMAT_BEGIN
 90
        0
 91
        1
 62
     0
 92
       -2
340
14
 93
        0
 40
0.045
309
GRIDFORMAT_END
 95
        4
302
GRIDFORMAT
  1
GRIDFORMAT_BEGIN
 90
        0
 91
        1
 62
     0
 92
       -2
340
14
 93
        0
 40
0.045
309
GRIDFORMAT_END
 95
        8
302
GRIDFORMAT
  1
GRIDFORMAT_BEGIN
 90
        0
 91
        1
 62
     0
 92
       -2
340
14
 93
        0
 40
0.045
309
GRIDFORMAT_END
 95
       16
302
GRIDFORMAT
  1
GRIDFORMAT_BEGIN
 90
        0
 91
        1
 62
     0
 92
       -2
340
14
 93
        0
 40
0.045
309
GRIDFORMAT_END
 95
       32
302
GRIDFORMAT
  1
GRIDFORMAT_BEGIN
 90
        0
 91
        1
 62
     0
 92
       -2
340
14
 93
        0
 40
0.045
309
GRIDFORMAT_END
309
TABLEFORMAT_END
  1
CELLSTYLE_BEGIN
 90
        2
 91
        1
300
_HEADER
309
CELLSTYLE_END
300
CELLSTYLE
  1
TABLEFORMAT_BEGIN
 90
        5
170
     1
 91
        0
 92
        0
 62
   257
 93
        1
300
CONTENTFORMAT
  1
CONTENTFORMAT_BEGIN
 90
        0
 91
        0
 92
        4
 93
        0
300

 40
0.0
140
1.0
 94
        2
 62
     0
340
11
144
0.18
309
CONTENTFORMAT_END
171
     1
301
MARGIN
  1
CELLMARGIN_BEGIN
 40
0.06
 40
0.06
 40
0.06
 40
0.06
 40
0.06
 40
0.06
309
CELLMARGIN_END
 94
        6
 95
        1
302
GRIDFORMAT
  1
GRIDFORMAT_BEGIN
 90
        0
 91
        1
 62
     0
 92
       -2
340
14
 93
        0
 40
0.045
309
GRIDFORMAT_END
 95
        2
302
GRIDFORMAT
  1
GRIDFORMAT_BEGIN
 90
        0
 91
        1
 62
     0
 92
       -2
340
14
 93
        0
 40
0.045
309
GRIDFORMAT_END
 95
        4
302
GRIDFORMAT
  1
GRIDFORMAT_BEGIN
 90
        0
 91
        1
 62
     0
 92
       -2
340
14
 93
        0
 40
0.045
309
GRIDFORMAT_END
 95
        8
302
GRIDFORMAT
  1
GRIDFORMAT_BEGIN
 90
        0
 91
        1
 62
     0
 92
       -2
340
14
 93
        0
 40
0.045
309
GRIDFORMAT_END
 95
       16
302
GRIDFORMAT
  1
GRIDFORMAT_BEGIN
 90
        0
 91
        1
 62
     0
 92
       -2
340
14
 93
        0
 40
0.045
309
GRIDFORMAT_END
 95
       32
302
GRIDFORMAT
  1
GRIDFORMAT_BEGIN
 90
        0
 91
        1
 62
     0
 92
       -2
340
14
 93
        0
 40
0.045
309
GRIDFORMAT_END
309
TABLEFORMAT_END
  1
CELLSTYLE_BEGIN
 90
        3
 91
        2
300
_DATA
309
CELLSTYLE_END
  0
XRECORD
  5
56A
102
{ACAD_REACTORS
330
569
102
}
330
569
100
AcDbXrecord
280
     1
102
RTVSPost2010Prop28
280
     1
102
RTVSPost2010PropOp28
 70
     1
102
RTVSPost2010Prop29
280
     1
102
RTVSPost2010PropOp29
 70
     1
102
RTVSPost2010Prop30
280
     0
102
RTVSPost2010PropOp30
 70
     1
102
RTVSPost2010Prop31
280
     0
102
RTVSPost2010PropOp31
 70
     1
102
RTVSPost2010Prop32
280
     0
102
RTVSPost2010PropOp32
 70
     1
102
RTVSPost2010Prop33
280
     0
102
RTVSPost2010PropOp33
 70
     1
102
RTVSPost2010Prop34
280
     0
102
RTVSPost2010PropOp34
 70
     1
102
RTVSPost2010Prop35
280
     0
102
RTVSPost2010PropOp35
 70
     1
102
RTVSPost2010Prop36
280
     0
102
RTVSPost2010PropOp36
 70
     1
102
RTVSPost2010Prop37
 90
       50
102
RTVSPost2010PropOp37
 70
     1
102
RTVSPost2010Prop38
140
0.0
102
RTVSPost2010PropOp38
 70
     1
102
RTVSPost2010Prop39
140
1.0
102
RTVSPost2010PropOp39
 70
     1
102
RTVSPost2010Prop40
 90
        0
102
RTVSPost2010PropOp40
 70
     1
102
RTVSPost2010Prop41ColorIndex
 90
       18
102
RTVSPost2010Prop41ColorRGB
 90
        0
102
RTVSPost2010PropOp41
 70
     1
102
RTVSPost2010Prop42
 90
       50
102
RTVSPost2010PropOp42
 70
     1
102
RTVSPost2010Prop43
 90
        3
102
RTVSPost2010PropOp43
 70
     1
102
RTVSPost2010Prop44ColorIndex
 90
        5
102
RTVSPost2010Prop44ColorRGB
 90
      255
102
RTVSPost2010PropOp44
 70
     1
102
RTVSPost2010Prop45
280
     0
102
RTVSPost2010PropOp45
 70
     1
102
RTVSPost2010Prop46
 90
       50
102
RTVSPost2010PropOp46
 70
     1
102
RTVSPost2010Prop47
 90
       50
102
RTVSPost2010PropOp47
 70
     1
102
RTVSPost2010Prop48
 90
       50
102
RTVSPost2010PropOp48
 70
     1
102
RTVSPost2010Prop49
280
     0
102
RTVSPost2010PropOp49
 70
     1
102
RTVSPost2010Prop50
 90
       50
102
RTVSPost2010PropOp50
 70
     1
102
RTVSPost2010Prop51ColorIndex
 90
      256
102
RTVSPost2010Prop51ColorRGB
 90
-16777216
102
RTVSPost2010PropOp51
 70
     0
102
RTVSPost2010Prop52
140
1.0
102
RTVSPost2010PropOp52
 70
     0
102
RTVSPost2010Prop53
 90
        2
102
RTVSPost2010PropOp53
 70
     1
102
RTVSPost2010Prop54
  1
strokes_ogs.tif
102
RTVSPost2010PropOp54
 70
     1
102
RTVSPost2010Prop55
280
     0
102
RTVSPost2010PropOp55
 70
     1
102
RTVSPost2010Prop56
140
1.0
102
RTVSPost2010PropOp56
 70
     1
102
RTVSPost2010Prop57
140
1.0
102
RTVSPost2010PropOp57
 70
     1
  0
XRECORD
  5
570
102
{ACAD_REACTORS
330
56F
102
}
330
56F
100
AcDbXrecord
280
     1
102
RTVSPost2010Prop28
280
     0
102
RTVSPost2010PropOp28
 70
     1
102
RTVSPost2010Prop29
280
     1
102
RTVSPost2010PropOp29
 70
     1
102
RTVSPost2010Prop30
280
     1
102
RTVSPost2010PropOp30
 70
     1
102
RTVSPost2010Prop31
280
     0
102
RTVSPost2010PropOp31
 70
     1
102
RTVSPost2010Prop32
280
     0
102
RTVSPost2010PropOp32
 70
     1
102
RTVSPost2010Prop33
280
     0
102
RTVSPost2010PropOp33
 70
     1
102
RTVSPost2010Prop34
280
     0
102
RTVSPost2010PropOp34
 70
     1
102
RTVSPost2010Prop35
280
     0
102
RTVSPost2010PropOp35
 70
     1
102
RTVSPost2010Prop36
280
     0
102
RTVSPost2010PropOp36
 70
     1
102
RTVSPost2010Prop37
 90
       50
102
RTVSPost2010PropOp37
 70
     1
102
RTVSPost2010Prop38
140
0.0
102
RTVSPost2010PropOp38
 70
     1
102
RTVSPost2010Prop39
140
1.0
102
RTVSPost2010PropOp39
 70
     1
102
RTVSPost2010Prop40
 90
        0
102
RTVSPost2010PropOp40
 70
     1
102
RTVSPost2010Prop41ColorIndex
 90
       18
102
RTVSPost2010Prop41ColorRGB
 90
        0
102
RTVSPost2010PropOp41
 70
     1
102
RTVSPost2010Prop42
 90
       50
102
RTVSPost2010PropOp42
 70
     1
102
RTVSPost2010Prop43
 90
        3
102
RTVSPost2010PropOp43
 70
     1
102
RTVSPost2010Prop44ColorIndex
 90
        5
102
RTVSPost2010Prop44ColorRGB
 90
      255
102
RTVSPost2010PropOp44
 70
     1
102
RTVSPost2010Prop45
280
     0
102
RTVSPost2010PropOp45
 70
     1
102
RTVSPost2010Prop46
 90
       50
102
RTVSPost2010PropOp46
 70
     1
102
RTVSPost2010Prop47
 90
       50
102
RTVSPost2010PropOp47
 70
     1
102
RTVSPost2010Prop48
 90
       50
102
RTVSPost2010PropOp48
 70
     1
102
RTVSPost2010Prop49
280
     0
102
RTVSPost2010PropOp49
 70
     1
102
RTVSPost2010Prop50
 90
       50
102
RTVSPost2010PropOp50
 70
     1
102
RTVSPost2010Prop51ColorIndex
 90
      256
102
RTVSPost2010Prop51ColorRGB
 90
-16777216
102
RTVSPost2010PropOp51
 70
     0
102
RTVSPost2010Prop52
140
1.0
102
RTVSPost2010PropOp52
 70
     0
102
RTVSPost2010Prop53
 90
        2
102
RTVSPost2010PropOp53
 70
     1
102
RTVSPost2010Prop54
  1
strokes_ogs.tif
102
RTVSPost2010PropOp54
 70
     1
102
RTVSPost2010Prop55
280
     0
102
RTVSPost2010PropOp55
 70
     1
102
RTVSPost2010Prop56
140
1.0
102
RTVSPost2010PropOp56
 70
     1
102
RTVSPost2010Prop57
140
1.0
102
RTVSPost2010PropOp57
 70
     1
  0
XRECORD
  5
578
102
{ACAD_REACTORS
330
577
102
}
330
577
100
AcDbXrecord
280
     1
102
RTVSPost2010Prop28
280
     0
102
RTVSPost2010PropOp28
 70
     1
102
RTVSPost2010Prop29
280
     1
102
RTVSPost2010PropOp29
 70
     1
102
RTVSPost2010Prop30
280
     1
102
RTVSPost2010PropOp30
 70
     1
102
RTVSPost2010Prop31
280
     0
102
RTVSPost2010PropOp31
 70
     1
102
RTVSPost2010Prop32
280
     0
102
RTVSPost2010PropOp32
 70
     1
102
RTVSPost2010Prop33
280
     0
102
RTVSPost2010PropOp33
 70
     1
102
RTVSPost2010Prop34
280
     0
102
RTVSPost2010PropOp34
 70
     1
102
RTVSPost2010Prop35
280
     0
102
RTVSPost2010PropOp35
 70
     1
102
RTVSPost2010Prop36
280
     0
102
RTVSPost2010PropOp36
 70
     1
102
RTVSPost2010Prop37
 90
       50
102
RTVSPost2010PropOp37
 70
     1
102
RTVSPost2010Prop38
140
0.0
102
RTVSPost2010PropOp38
 70
     1
102
RTVSPost2010Prop39
140
1.0
102
RTVSPost2010PropOp39
 70
     1
102
RTVSPost2010Prop40
 90
        0
102
RTVSPost2010PropOp40
 70
     1
102
RTVSPost2010Prop41ColorIndex
 90
       18
102
RTVSPost2010Prop41ColorRGB
 90
        0
102
RTVSPost2010PropOp41
 70
     1
102
RTVSPost2010Prop42
 90
       50
102
RTVSPost2010PropOp42
 70
     1
102
RTVSPost2010Prop43
 90
        3
102
RTVSPost2010PropOp43
 70
     1
102
RTVSPost2010Prop44ColorIndex
 90
        5
102
RTVSPost2010Prop44ColorRGB
 90
      255
102
RTVSPost2010PropOp44
 70
     1
102
RTVSPost2010Prop45
280
     0
102
RTVSPost2010PropOp45
 70
     1
102
RTVSPost2010Prop46
 90
       50
102
RTVSPost2010PropOp46
 70
     1
102
RTVSPost2010Prop47
 90
       50
102
RTVSPost2010PropOp47
 70
     1
102
RTVSPost2010Prop48
 90
       50
102
RTVSPost2010PropOp48
 70
     1
102
RTVSPost2010Prop49
280
     0
102
RTVSPost2010PropOp49
 70
     1
102
RTVSPost2010Prop50
 90
       50
102
RTVSPost2010PropOp50
 70
     1
102
RTVSPost2010Prop51ColorIndex
 90
      256
102
RTVSPost2010Prop51ColorRGB
 90
-16777216
102
RTVSPost2010PropOp51
 70
     0
102
RTVSPost2010Prop52
140
1.0
102
RTVSPost2010PropOp52
 70
     0
102
RTVSPost2010Prop53
 90
        2
102
RTVSPost2010PropOp53
 70
     1
102
RTVSPost2010Prop54
  1
strokes_ogs.tif
102
RTVSPost2010PropOp54
 70
     1
102
RTVSPost2010Prop55
280
     0
102
RTVSPost2010PropOp55
 70
     1
102
RTVSPost2010Prop56
140
1.0
102
RTVSPost2010PropOp56
 70
     1
102
RTVSPost2010Prop57
140
1.0
102
RTVSPost2010PropOp57
 70
     1
  0
XRECORD
  5
580
102
{ACAD_REACTORS
330
57F
102
}
330
57F
100
AcDbXrecord
280
     1
102
RTVSPost2010Prop28
280
     0
102
RTVSPost2010PropOp28
 70
     1
102
RTVSPost2010Prop29
280
     1
102
RTVSPost2010PropOp29
 70
     1
102
RTVSPost2010Prop30
280
     1
102
RTVSPost2010PropOp30
 70
     1
102
RTVSPost2010Prop31
280
     0
102
RTVSPost2010PropOp31
 70
     1
102
RTVSPost2010Prop32
280
     0
102
RTVSPost2010PropOp32
 70
     1
102
RTVSPost2010Prop33
280
     0
102
RTVSPost2010PropOp33
 70
     1
102
RTVSPost2010Prop34
280
     0
102
RTVSPost2010PropOp34
 70
     1
102
RTVSPost2010Prop35
280
     0
102
RTVSPost2010PropOp35
 70
     1
102
RTVSPost2010Prop36
280
     0
102
RTVSPost2010PropOp36
 70
     1
102
RTVSPost2010Prop37
 90
       50
102
RTVSPost2010PropOp37
 70
     1
102
RTVSPost2010Prop38
140
0.0
102
RTVSPost2010PropOp38
 70
     1
102
RTVSPost2010Prop39
140
1.0
102
RTVSPost2010PropOp39
 70
     1
102
RTVSPost2010Prop40
 90
        0
102
RTVSPost2010PropOp40
 70
     1
102
RTVSPost2010Prop41ColorIndex
 90
       18
102
RTVSPost2010Prop41ColorRGB
 90
        0
102
RTVSPost2010PropOp41
 70
     1
102
RTVSPost2010Prop42
 90
       50
102
RTVSPost2010PropOp42
 70
     1
102
RTVSPost2010Prop43
 90
        3
102
RTVSPost2010PropOp43
 70
     1
102
RTVSPost2010Prop44ColorIndex
 90
        5
102
RTVSPost2010Prop44ColorRGB
 90
      255
102
RTVSPost2010PropOp44
 70
     1
102
RTVSPost2010Prop45
280
     0
102
RTVSPost2010PropOp45
 70
     1
102
RTVSPost2010Prop46
 90
       50
102
RTVSPost2010PropOp46
 70
     1
102
RTVSPost2010Prop47
 90
       50
102
RTVSPost2010PropOp47
 70
     1
102
RTVSPost2010Prop48
 90
       50
102
RTVSPost2010PropOp48
 70
     1
102
RTVSPost2010Prop49
280
     0
102
RTVSPost2010PropOp49
 70
     1
102
RTVSPost2010Prop50
 90
       50
102
RTVSPost2010PropOp50
 70
     1
102
RTVSPost2010Prop51ColorIndex
 90
      256
102
RTVSPost2010Prop51ColorRGB
 90
-16777216
102
RTVSPost2010PropOp51
 70
     0
102
RTVSPost2010Prop52
140
1.0
102
RTVSPost2010PropOp52
 70
     0
102
RTVSPost2010Prop53
 90
        2
102
RTVSPost2010PropOp53
 70
     1
102
RTVSPost2010Prop54
  1
strokes_ogs.tif
102
RTVSPost2010PropOp54
 70
     1
102
RTVSPost2010Prop55
280
     0
102
RTVSPost2010PropOp55
 70
     1
102
RTVSPost2010Prop56
140
1.0
102
RTVSPost2010PropOp56
 70
     1
102
RTVSPost2010Prop57
140
1.0
102
RTVSPost2010PropOp57
 70
     1
  0
XRECORD
  5
574
102
{ACAD_REACTORS
330
573
102
}
330
573
100
AcDbXrecord
280
     1
102
RTVSPost2010Prop28
280
     0
102
RTVSPost2010PropOp28
 70
     1
102
RTVSPost2010Prop29
280
     1
102
RTVSPost2010PropOp29
 70
     1
102
RTVSPost2010Prop30
280
     1
102
RTVSPost2010PropOp30
 70
     1
102
RTVSPost2010Prop31
280
     0
102
RTVSPost2010PropOp31
 70
     1
102
RTVSPost2010Prop32
280
     0
102
RTVSPost2010PropOp32
 70
     1
102
RTVSPost2010Prop33
280
     0
102
RTVSPost2010PropOp33
 70
     1
102
RTVSPost2010Prop34
280
     0
102
RTVSPost2010PropOp34
 70
     1
102
RTVSPost2010Prop35
280
     0
102
RTVSPost2010PropOp35
 70
     1
102
RTVSPost2010Prop36
280
     0
102
RTVSPost2010PropOp36
 70
     1
102
RTVSPost2010Prop37
 90
       50
102
RTVSPost2010PropOp37
 70
     1
102
RTVSPost2010Prop38
140
0.0
102
RTVSPost2010PropOp38
 70
     1
102
RTVSPost2010Prop39
140
1.0
102
RTVSPost2010PropOp39
 70
     1
102
RTVSPost2010Prop40
 90
        0
102
RTVSPost2010PropOp40
 70
     1
102
RTVSPost2010Prop41ColorIndex
 90
       18
102
RTVSPost2010Prop41ColorRGB
 90
        0
102
RTVSPost2010PropOp41
 70
     1
102
RTVSPost2010Prop42
 90
       50
102
RTVSPost2010PropOp42
 70
     1
102
RTVSPost2010Prop43
 90
        3
102
RTVSPost2010PropOp43
 70
     1
102
RTVSPost2010Prop44ColorIndex
 90
        5
102
RTVSPost2010Prop44ColorRGB
 90
      255
102
RTVSPost2010PropOp44
 70
     1
102
RTVSPost2010Prop45
280
     0
102
RTVSPost2010PropOp45
 70
     1
102
RTVSPost2010Prop46
 90
       50
102
RTVSPost2010PropOp46
 70
     1
102
RTVSPost2010Prop47
 90
       50
102
RTVSPost2010PropOp47
 70
     1
102
RTVSPost2010Prop48
 90
       50
102
RTVSPost2010PropOp48
 70
     1
102
RTVSPost2010Prop49
280
     0
102
RTVSPost2010PropOp49
 70
     1
102
RTVSPost2010Prop50
 90
       50
102
RTVSPost2010PropOp50
 70
     1
102
RTVSPost2010Prop51ColorIndex
 90
      256
102
RTVSPost2010Prop51ColorRGB
 90
-16777216
102
RTVSPost2010PropOp51
 70
     0
102
RTVSPost2010Prop52
140
1.0
102
RTVSPost2010PropOp52
 70
     0
102
RTVSPost2010Prop53
 90
        2
102
RTVSPost2010PropOp53
 70
     1
102
RTVSPost2010Prop54
  1
strokes_ogs.tif
102
RTVSPost2010PropOp54
 70
     1
102
RTVSPost2010Prop55
280
     0
102
RTVSPost2010PropOp55
 70
     1
102
RTVSPost2010Prop56
140
1.0
102
RTVSPost2010PropOp56
 70
     1
102
RTVSPost2010Prop57
140
1.0
102
RTVSPost2010PropOp57
 70
     1
  0
XRECORD
  5
576
102
{ACAD_REACTORS
330
575
102
}
330
575
100
AcDbXrecord
280
     1
102
RTVSPost2010Prop28
280
     0
102
RTVSPost2010PropOp28
 70
     1
102
RTVSPost2010Prop29
280
     1
102
RTVSPost2010PropOp29
 70
     1
102
RTVSPost2010Prop30
280
     1
102
RTVSPost2010PropOp30
 70
     1
102
RTVSPost2010Prop31
280
     0
102
RTVSPost2010PropOp31
 70
     1
102
RTVSPost2010Prop32
280
     0
102
RTVSPost2010PropOp32
 70
     1
102
RTVSPost2010Prop33
280
     0
102
RTVSPost2010PropOp33
 70
     1
102
RTVSPost2010Prop34
280
     0
102
RTVSPost2010PropOp34
 70
     1
102
RTVSPost2010Prop35
280
     0
102
RTVSPost2010PropOp35
 70
     1
102
RTVSPost2010Prop36
280
     0
102
RTVSPost2010PropOp36
 70
     1
102
RTVSPost2010Prop37
 90
       50
102
RTVSPost2010PropOp37
 70
     1
102
RTVSPost2010Prop38
140
0.0
102
RTVSPost2010PropOp38
 70
     1
102
RTVSPost2010Prop39
140
1.0
102
RTVSPost2010PropOp39
 70
     1
102
RTVSPost2010Prop40
 90
        0
102
RTVSPost2010PropOp40
 70
     1
102
RTVSPost2010Prop41ColorIndex
 90
       18
102
RTVSPost2010Prop41ColorRGB
 90
        0
102
RTVSPost2010PropOp41
 70
     1
102
RTVSPost2010Prop42
 90
       50
102
RTVSPost2010PropOp42
 70
     1
102
RTVSPost2010Prop43
 90
        3
102
RTVSPost2010PropOp43
 70
     1
102
RTVSPost2010Prop44ColorIndex
 90
        5
102
RTVSPost2010Prop44ColorRGB
 90
      255
102
RTVSPost2010PropOp44
 70
     1
102
RTVSPost2010Prop45
280
     0
102
RTVSPost2010PropOp45
 70
     1
102
RTVSPost2010Prop46
 90
       50
102
RTVSPost2010PropOp46
 70
     1
102
RTVSPost2010Prop47
 90
       50
102
RTVSPost2010PropOp47
 70
     1
102
RTVSPost2010Prop48
 90
       50
102
RTVSPost2010PropOp48
 70
     1
102
RTVSPost2010Prop49
280
     0
102
RTVSPost2010PropOp49
 70
     1
102
RTVSPost2010Prop50
 90
       50
102
RTVSPost2010PropOp50
 70
     1
102
RTVSPost2010Prop51ColorIndex
 90
      256
102
RTVSPost2010Prop51ColorRGB
 90
-16777216
102
RTVSPost2010PropOp51
 70
     0
102
RTVSPost2010Prop52
140
1.0
102
RTVSPost2010PropOp52
 70
     0
102
RTVSPost2010Prop53
 90
        2
102
RTVSPost2010PropOp53
 70
     1
102
RTVSPost2010Prop54
  1
strokes_ogs.tif
102
RTVSPost2010PropOp54
 70
     1
102
RTVSPost2010Prop55
280
     0
102
RTVSPost2010PropOp55
 70
     1
102
RTVSPost2010Prop56
140
1.0
102
RTVSPost2010PropOp56
 70
     1
102
RTVSPost2010Prop57
140
1.0
102
RTVSPost2010PropOp57
 70
     1
  0
XRECORD
  5
586
102
{ACAD_REACTORS
330
585
102
}
330
585
100
AcDbXrecord
280
     1
102
RTVSPost2010Prop28
280
     0
102
RTVSPost2010PropOp28
 70
     0
102
RTVSPost2010Prop29
280
     1
102
RTVSPost2010PropOp29
 70
     0
102
RTVSPost2010Prop30
280
     1
102
RTVSPost2010PropOp30
 70
     0
102
RTVSPost2010Prop31
280
     0
102
RTVSPost2010PropOp31
 70
     0
102
RTVSPost2010Prop32
280
     0
102
RTVSPost2010PropOp32
 70
     0
102
RTVSPost2010Prop33
280
     0
102
RTVSPost2010PropOp33
 70
     0
102
RTVSPost2010Prop34
280
     0
102
RTVSPost2010PropOp34
 70
     0
102
RTVSPost2010Prop35
280
     0
102
RTVSPost2010PropOp35
 70
     0
102
RTVSPost2010Prop36
280
     0
102
RTVSPost2010PropOp36
 70
     0
102
RTVSPost2010Prop37
 90
       50
102
RTVSPost2010PropOp37
 70
     0
102
RTVSPost2010Prop38
140
0.0
102
RTVSPost2010PropOp38
 70
     0
102
RTVSPost2010Prop39
140
1.0
102
RTVSPost2010PropOp39
 70
     0
102
RTVSPost2010Prop40
 90
        0
102
RTVSPost2010PropOp40
 70
     0
102
RTVSPost2010Prop41ColorIndex
 90
       18
102
RTVSPost2010Prop41ColorRGB
 90
        0
102
RTVSPost2010PropOp41
 70
     0
102
RTVSPost2010Prop42
 90
       50
102
RTVSPost2010PropOp42
 70
     0
102
RTVSPost2010Prop43
 90
        3
102
RTVSPost2010PropOp43
 70
     0
102
RTVSPost2010Prop44ColorIndex
 90
        5
102
RTVSPost2010Prop44ColorRGB
 90
      255
102
RTVSPost2010PropOp44
 70
     0
102
RTVSPost2010Prop45
280
     0
102
RTVSPost2010PropOp45
 70
     0
102
RTVSPost2010Prop46
 90
       50
102
RTVSPost2010PropOp46
 70
     0
102
RTVSPost2010Prop47
 90
       50
102
RTVSPost2010PropOp47
 70
     0
102
RTVSPost2010Prop48
 90
       50
102
RTVSPost2010PropOp48
 70
     0
102
RTVSPost2010Prop49
280
     0
102
RTVSPost2010PropOp49
 70
     0
102
RTVSPost2010Prop50
 90
       50
102
RTVSPost2010PropOp50
 70
     0
102
RTVSPost2010Prop51ColorIndex
 90
      256
102
RTVSPost2010Prop51ColorRGB
 90
-16777216
102
RTVSPost2010PropOp51
 70
     0
102
RTVSPost2010Prop52
140
1.0
102
RTVSPost2010PropOp52
 70
     0
102
RTVSPost2010Prop53
 90
        2
102
RTVSPost2010PropOp53
 70
     0
102
RTVSPost2010Prop54
  1
strokes_ogs.tif
102
RTVSPost2010PropOp54
 70
     0
102
RTVSPost2010Prop55
280
     0
102
RTVSPost2010PropOp55
 70
     0
102
RTVSPost2010Prop56
140
1.0
102
RTVSPost2010PropOp56
 70
     0
102
RTVSPost2010Prop57
140
1.0
102
RTVSPost2010PropOp57
 70
     0
  0
XRECORD
  5
57E
102
{ACAD_REACTORS
330
57D
102
}
330
57D
100
AcDbXrecord
280
     1
102
RTVSPost2010Prop28
280
     0
102
RTVSPost2010PropOp28
 70
     1
102
RTVSPost2010Prop29
280
     1
102
RTVSPost2010PropOp29
 70
     1
102
RTVSPost2010Prop30
280
     1
102
RTVSPost2010PropOp30
 70
     1
102
RTVSPost2010Prop31
280
     0
102
RTVSPost2010PropOp31
 70
     1
102
RTVSPost2010Prop32
280
     0
102
RTVSPost2010PropOp32
 70
     1
102
RTVSPost2010Prop33
280
     0
102
RTVSPost2010PropOp33
 70
     1
102
RTVSPost2010Prop34
280
     0
102
RTVSPost2010PropOp34
 70
     1
102
RTVSPost2010Prop35
280
     0
102
RTVSPost2010PropOp35
 70
     1
102
RTVSPost2010Prop36
280
     0
102
RTVSPost2010PropOp36
 70
     1
102
RTVSPost2010Prop37
 90
       50
102
RTVSPost2010PropOp37
 70
     1
102
RTVSPost2010Prop38
140
0.0
102
RTVSPost2010PropOp38
 70
     1
102
RTVSPost2010Prop39
140
1.0
102
RTVSPost2010PropOp39
 70
     1
102
RTVSPost2010Prop40
 90
        0
102
RTVSPost2010PropOp40
 70
     1
102
RTVSPost2010Prop41ColorIndex
 90
       18
102
RTVSPost2010Prop41ColorRGB
 90
        0
102
RTVSPost2010PropOp41
 70
     1
102
RTVSPost2010Prop42
 90
       50
102
RTVSPost2010PropOp42
 70
     1
102
RTVSPost2010Prop43
 90
        3
102
RTVSPost2010PropOp43
 70
     1
102
RTVSPost2010Prop44ColorIndex
 90
        5
102
RTVSPost2010Prop44ColorRGB
 90
      255
102
RTVSPost2010PropOp44
 70
     1
102
RTVSPost2010Prop45
280
     0
102
RTVSPost2010PropOp45
 70
     1
102
RTVSPost2010Prop46
 90
       50
102
RTVSPost2010PropOp46
 70
     1
102
RTVSPost2010Prop47
 90
       50
102
RTVSPost2010PropOp47
 70
     1
102
RTVSPost2010Prop48
 90
       50
102
RTVSPost2010PropOp48
 70
     1
102
RTVSPost2010Prop49
280
     0
102
RTVSPost2010PropOp49
 70
     1
102
RTVSPost2010Prop50
 90
       50
102
RTVSPost2010PropOp50
 70
     1
102
RTVSPost2010Prop51ColorIndex
 90
      256
102
RTVSPost2010Prop51ColorRGB
 90
-16777216
102
RTVSPost2010PropOp51
 70
     0
102
RTVSPost2010Prop52
140
1.0
102
RTVSPost2010PropOp52
 70
     0
102
RTVSPost2010Prop53
 90
        2
102
RTVSPost2010PropOp53
 70
     1
102
RTVSPost2010Prop54
  1
strokes_ogs.tif
102
RTVSPost2010PropOp54
 70
     1
102
RTVSPost2010Prop55
280
     0
102
RTVSPost2010PropOp55
 70
     1
102
RTVSPost2010Prop56
140
1.0
102
RTVSPost2010PropOp56
 70
     1
102
RTVSPost2010Prop57
140
1.0
102
RTVSPost2010PropOp57
 70
     1
  0
XRECORD
  5
562
102
{ACAD_REACTORS
330
561
102
}
330
561
100
AcDbXrecord
280
     1
102
RTVSPost2010Prop28
280
     0
102
RTVSPost2010PropOp28
 70
     1
102
RTVSPost2010Prop29
280
     1
102
RTVSPost2010PropOp29
 70
     1
102
RTVSPost2010Prop30
280
     1
102
RTVSPost2010PropOp30
 70
     1
102
RTVSPost2010Prop31
280
     0
102
RTVSPost2010PropOp31
 70
     1
102
RTVSPost2010Prop32
280
     0
102
RTVSPost2010PropOp32
 70
     1
102
RTVSPost2010Prop33
280
     0
102
RTVSPost2010PropOp33
 70
     1
102
RTVSPost2010Prop34
280
     0
102
RTVSPost2010PropOp34
 70
     1
102
RTVSPost2010Prop35
280
     0
102
RTVSPost2010PropOp35
 70
     1
102
RTVSPost2010Prop36
280
     0
102
RTVSPost2010PropOp36
 70
     1
102
RTVSPost2010Prop37
 90
       50
102
RTVSPost2010PropOp37
 70
     1
102
RTVSPost2010Prop38
140
0.0
102
RTVSPost2010PropOp38
 70
     1
102
RTVSPost2010Prop39
140
1.0
102
RTVSPost2010PropOp39
 70
     1
102
RTVSPost2010Prop40
 90
        0
102
RTVSPost2010PropOp40
 70
     1
102
RTVSPost2010Prop41ColorIndex
 90
       18
102
RTVSPost2010Prop41ColorRGB
 90
        0
102
RTVSPost2010PropOp41
 70
     1
102
RTVSPost2010Prop42
 90
       50
102
RTVSPost2010PropOp42
 70
     1
102
RTVSPost2010Prop43
 90
        3
102
RTVSPost2010PropOp43
 70
     1
102
RTVSPost2010Prop44ColorIndex
 90
        5
102
RTVSPost2010Prop44ColorRGB
 90
      255
102
RTVSPost2010PropOp44
 70
     1
102
RTVSPost2010Prop45
280
     0
102
RTVSPost2010PropOp45
 70
     1
102
RTVSPost2010Prop46
 90
       50
102
RTVSPost2010PropOp46
 70
     1
102
RTVSPost2010Prop47
 90
       50
102
RTVSPost2010PropOp47
 70
     1
102
RTVSPost2010Prop48
 90
       50
102
RTVSPost2010PropOp48
 70
     1
102
RTVSPost2010Prop49
280
     0
102
RTVSPost2010PropOp49
 70
     1
102
RTVSPost2010Prop50
 90
       50
102
RTVSPost2010PropOp50
 70
     1
102
RTVSPost2010Prop51ColorIndex
 90
      256
102
RTVSPost2010Prop51ColorRGB
 90
-16777216
102
RTVSPost2010PropOp51
 70
     0
102
RTVSPost2010Prop52
140
1.0
102
RTVSPost2010PropOp52
 70
     0
102
RTVSPost2010Prop53
 90
        2
102
RTVSPost2010PropOp53
 70
     1
102
RTVSPost2010Prop54
  1
strokes_ogs.tif
102
RTVSPost2010PropOp54
 70
     1
102
RTVSPost2010Prop55
280
     0
102
RTVSPost2010PropOp55
 70
     1
102
RTVSPost2010Prop56
140
1.0
102
RTVSPost2010PropOp56
 70
     1
102
RTVSPost2010Prop57
140
1.0
102
RTVSPost2010PropOp57
 70
     1
  0
XRECORD
  5
564
102
{ACAD_REACTORS
330
563
102
}
330
563
100
AcDbXrecord
280
     1
102
RTVSPost2010Prop28
280
     0
102
RTVSPost2010PropOp28
 70
     1
102
RTVSPost2010Prop29
280
     1
102
RTVSPost2010PropOp29
 70
     1
102
RTVSPost2010Prop30
280
     1
102
RTVSPost2010PropOp30
 70
     1
102
RTVSPost2010Prop31
280
     0
102
RTVSPost2010PropOp31
 70
     1
102
RTVSPost2010Prop32
280
     0
102
RTVSPost2010PropOp32
 70
     1
102
RTVSPost2010Prop33
280
     0
102
RTVSPost2010PropOp33
 70
     1
102
RTVSPost2010Prop34
280
     0
102
RTVSPost2010PropOp34
 70
     1
102
RTVSPost2010Prop35
280
     0
102
RTVSPost2010PropOp35
 70
     1
102
RTVSPost2010Prop36
280
     0
102
RTVSPost2010PropOp36
 70
     1
102
RTVSPost2010Prop37
 90
       50
102
RTVSPost2010PropOp37
 70
     1
102
RTVSPost2010Prop38
140
0.0
102
RTVSPost2010PropOp38
 70
     1
102
RTVSPost2010Prop39
140
1.0
102
RTVSPost2010PropOp39
 70
     1
102
RTVSPost2010Prop40
 90
        0
102
RTVSPost2010PropOp40
 70
     1
102
RTVSPost2010Prop41ColorIndex
 90
       18
102
RTVSPost2010Prop41ColorRGB
 90
        0
102
RTVSPost2010PropOp41
 70
     1
102
RTVSPost2010Prop42
 90
       50
102
RTVSPost2010PropOp42
 70
     1
102
RTVSPost2010Prop43
 90
        3
102
RTVSPost2010PropOp43
 70
     1
102
RTVSPost2010Prop44ColorIndex
 90
        5
102
RTVSPost2010Prop44ColorRGB
 90
      255
102
RTVSPost2010PropOp44
 70
     1
102
RTVSPost2010Prop45
280
     0
102
RTVSPost2010PropOp45
 70
     1
102
RTVSPost2010Prop46
 90
       50
102
RTVSPost2010PropOp46
 70
     1
102
RTVSPost2010Prop47
 90
       50
102
RTVSPost2010PropOp47
 70
     1
102
RTVSPost2010Prop48
 90
       50
102
RTVSPost2010PropOp48
 70
     1
102
RTVSPost2010Prop49
280
     0
102
RTVSPost2010PropOp49
 70
     1
102
RTVSPost2010Prop50
 90
       50
102
RTVSPost2010PropOp50
 70
     1
102
RTVSPost2010Prop51ColorIndex
 90
      256
102
RTVSPost2010Prop51ColorRGB
 90
-16777216
102
RTVSPost2010PropOp51
 70
     0
102
RTVSPost2010Prop52
140
1.0
102
RTVSPost2010PropOp52
 70
     0
102
RTVSPost2010Prop53
 90
        2
102
RTVSPost2010PropOp53
 70
     1
102
RTVSPost2010Prop54
  1
strokes_ogs.tif
102
RTVSPost2010PropOp54
 70
     1
102
RTVSPost2010Prop55
280
     0
102
RTVSPost2010PropOp55
 70
     1
102
RTVSPost2010Prop56
140
1.0
102
RTVSPost2010PropOp56
 70
     1
102
RTVSPost2010Prop57
140
1.0
102
RTVSPost2010PropOp57
 70
     1
  0
XRECORD
  5
566
102
{ACAD_REACTORS
330
565
102
}
330
565
100
AcDbXrecord
280
     1
102
RTVSPost2010Prop28
280
     0
102
RTVSPost2010PropOp28
 70
     1
102
RTVSPost2010Prop29
280
     1
102
RTVSPost2010PropOp29
 70
     1
102
RTVSPost2010Prop30
280
     1
102
RTVSPost2010PropOp30
 70
     1
102
RTVSPost2010Prop31
280
     0
102
RTVSPost2010PropOp31
 70
     1
102
RTVSPost2010Prop32
280
     0
102
RTVSPost2010PropOp32
 70
     1
102
RTVSPost2010Prop33
280
     0
102
RTVSPost2010PropOp33
 70
     1
102
RTVSPost2010Prop34
280
     0
102
RTVSPost2010PropOp34
 70
     1
102
RTVSPost2010Prop35
280
     0
102
RTVSPost2010PropOp35
 70
     1
102
RTVSPost2010Prop36
280
     0
102
RTVSPost2010PropOp36
 70
     1
102
RTVSPost2010Prop37
 90
       50
102
RTVSPost2010PropOp37
 70
     1
102
RTVSPost2010Prop38
140
0.0
102
RTVSPost2010PropOp38
 70
     1
102
RTVSPost2010Prop39
140
1.0
102
RTVSPost2010PropOp39
 70
     1
102
RTVSPost2010Prop40
 90
        0
102
RTVSPost2010PropOp40
 70
     1
102
RTVSPost2010Prop41ColorIndex
 90
       18
102
RTVSPost2010Prop41ColorRGB
 90
        0
102
RTVSPost2010PropOp41
 70
     1
102
RTVSPost2010Prop42
 90
       50
102
RTVSPost2010PropOp42
 70
     1
102
RTVSPost2010Prop43
 90
        3
102
RTVSPost2010PropOp43
 70
     1
102
RTVSPost2010Prop44ColorIndex
 90
        5
102
RTVSPost2010Prop44ColorRGB
 90
      255
102
RTVSPost2010PropOp44
 70
     1
102
RTVSPost2010Prop45
280
     0
102
RTVSPost2010PropOp45
 70
     1
102
RTVSPost2010Prop46
 90
       50
102
RTVSPost2010PropOp46
 70
     1
102
RTVSPost2010Prop47
 90
       50
102
RTVSPost2010PropOp47
 70
     1
102
RTVSPost2010Prop48
 90
       50
102
RTVSPost2010PropOp48
 70
     1
102
RTVSPost2010Prop49
280
     0
102
RTVSPost2010PropOp49
 70
     1
102
RTVSPost2010Prop50
 90
       50
102
RTVSPost2010PropOp50
 70
     1
102
RTVSPost2010Prop51ColorIndex
 90
      256
102
RTVSPost2010Prop51ColorRGB
 90
-16777216
102
RTVSPost2010PropOp51
 70
     0
102
RTVSPost2010Prop52
140
1.0
102
RTVSPost2010PropOp52
 70
     0
102
RTVSPost2010Prop53
 90
        2
102
RTVSPost2010PropOp53
 70
     1
102
RTVSPost2010Prop54
  1
strokes_ogs.tif
102
RTVSPost2010PropOp54
 70
     1
102
RTVSPost2010Prop55
280
     0
102
RTVSPost2010PropOp55
 70
     1
102
RTVSPost2010Prop56
140
1.0
102
RTVSPost2010PropOp56
 70
     1
102
RTVSPost2010Prop57
140
1.0
102
RTVSPost2010PropOp57
 70
     1
  0
XRECORD
  5
568
102
{ACAD_REACTORS
330
567
102
}
330
567
100
AcDbXrecord
280
     1
102
RTVSPost2010Prop28
280
     0
102
RTVSPost2010PropOp28
 70
     1
102
RTVSPost2010Prop29
280
     1
102
RTVSPost2010PropOp29
 70
     1
102
RTVSPost2010Prop30
280
     1
102
RTVSPost2010PropOp30
 70
     1
102
RTVSPost2010Prop31
280
     0
102
RTVSPost2010PropOp31
 70
     1
102
RTVSPost2010Prop32
280
     0
102
RTVSPost2010PropOp32
 70
     1
102
RTVSPost2010Prop33
280
     0
102
RTVSPost2010PropOp33
 70
     1
102
RTVSPost2010Prop34
280
     0
102
RTVSPost2010PropOp34
 70
     1
102
RTVSPost2010Prop35
280
     0
102
RTVSPost2010PropOp35
 70
     1
102
RTVSPost2010Prop36
280
     0
102
RTVSPost2010PropOp36
 70
     1
102
RTVSPost2010Prop37
 90
       50
102
RTVSPost2010PropOp37
 70
     1
102
RTVSPost2010Prop38
140
0.0
102
RTVSPost2010PropOp38
 70
     1
102
RTVSPost2010Prop39
140
1.0
102
RTVSPost2010PropOp39
 70
     1
102
RTVSPost2010Prop40
 90
        0
102
RTVSPost2010PropOp40
 70
     1
102
RTVSPost2010Prop41ColorIndex
 90
       18
102
RTVSPost2010Prop41ColorRGB
 90
        0
102
RTVSPost2010PropOp41
 70
     1
102
RTVSPost2010Prop42
 90
       50
102
RTVSPost2010PropOp42
 70
     1
102
RTVSPost2010Prop43
 90
        3
102
RTVSPost2010PropOp43
 70
     1
102
RTVSPost2010Prop44ColorIndex
 90
        5
102
RTVSPost2010Prop44ColorRGB
 90
      255
102
RTVSPost2010PropOp44
 70
     1
102
RTVSPost2010Prop45
280
     0
102
RTVSPost2010PropOp45
 70
     1
102
RTVSPost2010Prop46
 90
       50
102
RTVSPost2010PropOp46
 70
     1
102
RTVSPost2010Prop47
 90
       50
102
RTVSPost2010PropOp47
 70
     1
102
RTVSPost2010Prop48
 90
       50
102
RTVSPost2010PropOp48
 70
     1
102
RTVSPost2010Prop49
280
     0
102
RTVSPost2010PropOp49
 70
     1
102
RTVSPost2010Prop50
 90
       50
102
RTVSPost2010PropOp50
 70
     1
102
RTVSPost2010Prop51ColorIndex
 90
      256
102
RTVSPost2010Prop51ColorRGB
 90
-16777216
102
RTVSPost2010PropOp51
 70
     0
102
RTVSPost2010Prop52
140
1.0
102
RTVSPost2010PropOp52
 70
     0
102
RTVSPost2010Prop53
 90
        2
102
RTVSPost2010PropOp53
 70
     1
102
RTVSPost2010Prop54
  1
strokes_ogs.tif
102
RTVSPost2010PropOp54
 70
     1
102
RTVSPost2010Prop55
280
     0
102
RTVSPost2010PropOp55
 70
     1
102
RTVSPost2010Prop56
140
1.0
102
RTVSPost2010PropOp56
 70
     1
102
RTVSPost2010Prop57
140
1.0
102
RTVSPost2010PropOp57
 70
     1
  0
XRECORD
  5
56E
102
{ACAD_REACTORS
330
56D
102
}
330
56D
100
AcDbXrecord
280
     1
102
RTVSPost2010Prop28
280
     0
102
RTVSPost2010PropOp28
 70
     1
102
RTVSPost2010Prop29
280
     1
102
RTVSPost2010PropOp29
 70
     1
102
RTVSPost2010Prop30
280
     1
102
RTVSPost2010PropOp30
 70
     1
102
RTVSPost2010Prop31
280
     0
102
RTVSPost2010PropOp31
 70
     1
102
RTVSPost2010Prop32
280
     0
102
RTVSPost2010PropOp32
 70
     1
102
RTVSPost2010Prop33
280
     0
102
RTVSPost2010PropOp33
 70
     1
102
RTVSPost2010Prop34
280
     0
102
RTVSPost2010PropOp34
 70
     1
102
RTVSPost2010Prop35
280
     0
102
RTVSPost2010PropOp35
 70
     1
102
RTVSPost2010Prop36
280
     0
102
RTVSPost2010PropOp36
 70
     1
102
RTVSPost2010Prop37
 90
       50
102
RTVSPost2010PropOp37
 70
     1
102
RTVSPost2010Prop38
140
0.0
102
RTVSPost2010PropOp38
 70
     1
102
RTVSPost2010Prop39
140
1.0
102
RTVSPost2010PropOp39
 70
     1
102
RTVSPost2010Prop40
 90
        0
102
RTVSPost2010PropOp40
 70
     1
102
RTVSPost2010Prop41ColorIndex
 90
       18
102
RTVSPost2010Prop41ColorRGB
 90
        0
102
RTVSPost2010PropOp41
 70
     1
102
RTVSPost2010Prop42
 90
       50
102
RTVSPost2010PropOp42
 70
     1
102
RTVSPost2010Prop43
 90
        3
102
RTVSPost2010PropOp43
 70
     1
102
RTVSPost2010Prop44ColorIndex
 90
        5
102
RTVSPost2010Prop44ColorRGB
 90
      255
102
RTVSPost2010PropOp44
 70
     1
102
RTVSPost2010Prop45
280
     0
102
RTVSPost2010PropOp45
 70
     1
102
RTVSPost2010Prop46
 90
       50
102
RTVSPost2010PropOp46
 70
     1
102
RTVSPost2010Prop47
 90
       50
102
RTVSPost2010PropOp47
 70
     1
102
RTVSPost2010Prop48
 90
       50
102
RTVSPost2010PropOp48
 70
     1
102
RTVSPost2010Prop49
280
     0
102
RTVSPost2010PropOp49
 70
     1
102
RTVSPost2010Prop50
 90
       50
102
RTVSPost2010PropOp50
 70
     1
102
RTVSPost2010Prop51ColorIndex
 90
      256
102
RTVSPost2010Prop51ColorRGB
 90
-16777216
102
RTVSPost2010PropOp51
 70
     0
102
RTVSPost2010Prop52
140
1.0
102
RTVSPost2010PropOp52
 70
     0
102
RTVSPost2010Prop53
 90
        2
102
RTVSPost2010PropOp53
 70
     1
102
RTVSPost2010Prop54
  1
strokes_ogs.tif
102
RTVSPost2010PropOp54
 70
     1
102
RTVSPost2010Prop55
280
     0
102
RTVSPost2010PropOp55
 70
     1
102
RTVSPost2010Prop56
140
1.0
102
RTVSPost2010PropOp56
 70
     1
102
RTVSPost2010Prop57
140
1.0
102
RTVSPost2010PropOp57
 70
     1
  0
XRECORD
  5
582
102
{ACAD_REACTORS
330
581
102
}
330
581
100
AcDbXrecord
280
     1
102
RTVSPost2010Prop28
280
     0
102
RTVSPost2010PropOp28
 70
     0
102
RTVSPost2010Prop29
280
     1
102
RTVSPost2010PropOp29
 70
     0
102
RTVSPost2010Prop30
280
     1
102
RTVSPost2010PropOp30
 70
     0
102
RTVSPost2010Prop31
280
     0
102
RTVSPost2010PropOp31
 70
     0
102
RTVSPost2010Prop32
280
     0
102
RTVSPost2010PropOp32
 70
     0
102
RTVSPost2010Prop33
280
     0
102
RTVSPost2010PropOp33
 70
     0
102
RTVSPost2010Prop34
280
     0
102
RTVSPost2010PropOp34
 70
     0
102
RTVSPost2010Prop35
280
     0
102
RTVSPost2010PropOp35
 70
     0
102
RTVSPost2010Prop36
280
     0
102
RTVSPost2010PropOp36
 70
     0
102
RTVSPost2010Prop37
 90
       50
102
RTVSPost2010PropOp37
 70
     0
102
RTVSPost2010Prop38
140
0.0
102
RTVSPost2010PropOp38
 70
     0
102
RTVSPost2010Prop39
140
1.0
102
RTVSPost2010PropOp39
 70
     0
102
RTVSPost2010Prop40
 90
        0
102
RTVSPost2010PropOp40
 70
     0
102
RTVSPost2010Prop41ColorIndex
 90
       18
102
RTVSPost2010Prop41ColorRGB
 90
        0
102
RTVSPost2010PropOp41
 70
     0
102
RTVSPost2010Prop42
 90
       50
102
RTVSPost2010PropOp42
 70
     0
102
RTVSPost2010Prop43
 90
        3
102
RTVSPost2010PropOp43
 70
     0
102
RTVSPost2010Prop44ColorIndex
 90
        5
102
RTVSPost2010Prop44ColorRGB
 90
      255
102
RTVSPost2010PropOp44
 70
     0
102
RTVSPost2010Prop45
280
     0
102
RTVSPost2010PropOp45
 70
     0
102
RTVSPost2010Prop46
 90
       50
102
RTVSPost2010PropOp46
 70
     0
102
RTVSPost2010Prop47
 90
       50
102
RTVSPost2010PropOp47
 70
     0
102
RTVSPost2010Prop48
 90
       50
102
RTVSPost2010PropOp48
 70
     0
102
RTVSPost2010Prop49
280
     0
102
RTVSPost2010PropOp49
 70
     0
102
RTVSPost2010Prop50
 90
       50
102
RTVSPost2010PropOp50
 70
     0
102
RTVSPost2010Prop51ColorIndex
 90
      256
102
RTVSPost2010Prop51ColorRGB
 90
-16777216
102
RTVSPost2010PropOp51
 70
     0
102
RTVSPost2010Prop52
140
1.0
102
RTVSPost2010PropOp52
 70
     0
102
RTVSPost2010Prop53
 90
        2
102
RTVSPost2010PropOp53
 70
     0
102
RTVSPost2010Prop54
  1
strokes_ogs.tif
102
RTVSPost2010PropOp54
 70
     0
102
RTVSPost2010Prop55
280
     0
102
RTVSPost2010PropOp55
 70
     0
102
RTVSPost2010Prop56
140
1.0
102
RTVSPost2010PropOp56
 70
     0
102
RTVSPost2010Prop57
140
1.0
102
RTVSPost2010PropOp57
 70
     0
  0
XRECORD
  5
57C
102
{ACAD_REACTORS
330
57B
102
}
330
57B
100
AcDbXrecord
280
     1
102
RTVSPost2010Prop28
280
     0
102
RTVSPost2010PropOp28
 70
     1
102
RTVSPost2010Prop29
280
     1
102
RTVSPost2010PropOp29
 70
     1
102
RTVSPost2010Prop30
280
     1
102
RTVSPost2010PropOp30
 70
     1
102
RTVSPost2010Prop31
280
     0
102
RTVSPost2010PropOp31
 70
     1
102
RTVSPost2010Prop32
280
     0
102
RTVSPost2010PropOp32
 70
     1
102
RTVSPost2010Prop33
280
     0
102
RTVSPost2010PropOp33
 70
     1
102
RTVSPost2010Prop34
280
     0
102
RTVSPost2010PropOp34
 70
     1
102
RTVSPost2010Prop35
280
     0
102
RTVSPost2010PropOp35
 70
     1
102
RTVSPost2010Prop36
280
     0
102
RTVSPost2010PropOp36
 70
     1
102
RTVSPost2010Prop37
 90
       50
102
RTVSPost2010PropOp37
 70
     1
102
RTVSPost2010Prop38
140
0.0
102
RTVSPost2010PropOp38
 70
     1
102
RTVSPost2010Prop39
140
1.0
102
RTVSPost2010PropOp39
 70
     1
102
RTVSPost2010Prop40
 90
        0
102
RTVSPost2010PropOp40
 70
     1
102
RTVSPost2010Prop41ColorIndex
 90
       18
102
RTVSPost2010Prop41ColorRGB
 90
        0
102
RTVSPost2010PropOp41
 70
     1
102
RTVSPost2010Prop42
 90
       50
102
RTVSPost2010PropOp42
 70
     1
102
RTVSPost2010Prop43
 90
        3
102
RTVSPost2010PropOp43
 70
     1
102
RTVSPost2010Prop44ColorIndex
 90
        5
102
RTVSPost2010Prop44ColorRGB
 90
      255
102
RTVSPost2010PropOp44
 70
     1
102
RTVSPost2010Prop45
280
     0
102
RTVSPost2010PropOp45
 70
     1
102
RTVSPost2010Prop46
 90
       50
102
RTVSPost2010PropOp46
 70
     1
102
RTVSPost2010Prop47
 90
       50
102
RTVSPost2010PropOp47
 70
     1
102
RTVSPost2010Prop48
 90
       50
102
RTVSPost2010PropOp48
 70
     1
102
RTVSPost2010Prop49
280
     0
102
RTVSPost2010PropOp49
 70
     1
102
RTVSPost2010Prop50
 90
       50
102
RTVSPost2010PropOp50
 70
     1
102
RTVSPost2010Prop51ColorIndex
 90
      256
102
RTVSPost2010Prop51ColorRGB
 90
-16777216
102
RTVSPost2010PropOp51
 70
     0
102
RTVSPost2010Prop52
140
1.0
102
RTVSPost2010PropOp52
 70
     0
102
RTVSPost2010Prop53
 90
        2
102
RTVSPost2010PropOp53
 70
     1
102
RTVSPost2010Prop54
  1
strokes_ogs.tif
102
RTVSPost2010PropOp54
 70
     1
102
RTVSPost2010Prop55
280
     0
102
RTVSPost2010PropOp55
 70
     1
102
RTVSPost2010Prop56
140
1.0
102
RTVSPost2010PropOp56
 70
     1
102
RTVSPost2010Prop57
140
1.0
102
RTVSPost2010PropOp57
 70
     1
  0
XRECORD
  5
584
102
{ACAD_REACTORS
330
583
102
}
330
583
100
AcDbXrecord
280
     1
102
RTVSPost2010Prop28
280
     0
102
RTVSPost2010PropOp28
 70
     0
102
RTVSPost2010Prop29
280
     1
102
RTVSPost2010PropOp29
 70
     0
102
RTVSPost2010Prop30
280
     1
102
RTVSPost2010PropOp30
 70
     0
102
RTVSPost2010Prop31
280
     0
102
RTVSPost2010PropOp31
 70
     0
102
RTVSPost2010Prop32
280
     0
102
RTVSPost2010PropOp32
 70
     0
102
RTVSPost2010Prop33
280
     0
102
RTVSPost2010PropOp33
 70
     0
102
RTVSPost2010Prop34
280
     0
102
RTVSPost2010PropOp34
 70
     0
102
RTVSPost2010Prop35
280
     0
102
RTVSPost2010PropOp35
 70
     0
102
RTVSPost2010Prop36
280
     0
102
RTVSPost2010PropOp36
 70
     0
102
RTVSPost2010Prop37
 90
       50
102
RTVSPost2010PropOp37
 70
     0
102
RTVSPost2010Prop38
140
0.0
102
RTVSPost2010PropOp38
 70
     0
102
RTVSPost2010Prop39
140
1.0
102
RTVSPost2010PropOp39
 70
     0
102
RTVSPost2010Prop40
 90
        0
102
RTVSPost2010PropOp40
 70
     0
102
RTVSPost2010Prop41ColorIndex
 90
       18
102
RTVSPost2010Prop41ColorRGB
 90
        0
102
RTVSPost2010PropOp41
 70
     0
102
RTVSPost2010Prop42
 90
       50
102
RTVSPost2010PropOp42
 70
     0
102
RTVSPost2010Prop43
 90
        3
102
RTVSPost2010PropOp43
 70
     0
102
RTVSPost2010Prop44ColorIndex
 90
        5
102
RTVSPost2010Prop44ColorRGB
 90
      255
102
RTVSPost2010PropOp44
 70
     0
102
RTVSPost2010Prop45
280
     0
102
RTVSPost2010PropOp45
 70
     0
102
RTVSPost2010Prop46
 90
       50
102
RTVSPost2010PropOp46
 70
     0
102
RTVSPost2010Prop47
 90
       50
102
RTVSPost2010PropOp47
 70
     0
102
RTVSPost2010Prop48
 90
       50
102
RTVSPost2010PropOp48
 70
     0
102
RTVSPost2010Prop49
280
     0
102
RTVSPost2010PropOp49
 70
     0
102
RTVSPost2010Prop50
 90
       50
102
RTVSPost2010PropOp50
 70
     0
102
RTVSPost2010Prop51ColorIndex
 90
      256
102
RTVSPost2010Prop51ColorRGB
 90
-16777216
102
RTVSPost2010PropOp51
 70
     0
102
RTVSPost2010Prop52
140
1.0
102
RTVSPost2010PropOp52
 70
     0
102
RTVSPost2010Prop53
 90
        2
102
RTVSPost2010PropOp53
 70
     0
102
RTVSPost2010Prop54
  1
strokes_ogs.tif
102
RTVSPost2010PropOp54
 70
     0
102
RTVSPost2010Prop55
280
     0
102
RTVSPost2010PropOp55
 70
     0
102
RTVSPost2010Prop56
140
1.0
102
RTVSPost2010PropOp56
 70
     0
102
RTVSPost2010Prop57
140
1.0
102
RTVSPost2010PropOp57
 70
     0
  0
XRECORD
  5
572
102
{ACAD_REACTORS
330
571
102
}
330
571
100
AcDbXrecord
280
     1
102
RTVSPost2010Prop28
280
     0
102
RTVSPost2010PropOp28
 70
     1
102
RTVSPost2010Prop29
280
     1
102
RTVSPost2010PropOp29
 70
     1
102
RTVSPost2010Prop30
280
     1
102
RTVSPost2010PropOp30
 70
     1
102
RTVSPost2010Prop31
280
     0
102
RTVSPost2010PropOp31
 70
     1
102
RTVSPost2010Prop32
280
     0
102
RTVSPost2010PropOp32
 70
     1
102
RTVSPost2010Prop33
280
     0
102
RTVSPost2010PropOp33
 70
     1
102
RTVSPost2010Prop34
280
     0
102
RTVSPost2010PropOp34
 70
     1
102
RTVSPost2010Prop35
280
     0
102
RTVSPost2010PropOp35
 70
     1
102
RTVSPost2010Prop36
280
     0
102
RTVSPost2010PropOp36
 70
     1
102
RTVSPost2010Prop37
 90
       50
102
RTVSPost2010PropOp37
 70
     1
102
RTVSPost2010Prop38
140
0.0
102
RTVSPost2010PropOp38
 70
     1
102
RTVSPost2010Prop39
140
1.0
102
RTVSPost2010PropOp39
 70
     1
102
RTVSPost2010Prop40
 90
        0
102
RTVSPost2010PropOp40
 70
     1
102
RTVSPost2010Prop41ColorIndex
 90
       18
102
RTVSPost2010Prop41ColorRGB
 90
        0
102
RTVSPost2010PropOp41
 70
     1
102
RTVSPost2010Prop42
 90
       50
102
RTVSPost2010PropOp42
 70
     1
102
RTVSPost2010Prop43
 90
        3
102
RTVSPost2010PropOp43
 70
     1
102
RTVSPost2010Prop44ColorIndex
 90
        5
102
RTVSPost2010Prop44ColorRGB
 90
      255
102
RTVSPost2010PropOp44
 70
     1
102
RTVSPost2010Prop45
280
     0
102
RTVSPost2010PropOp45
 70
     1
102
RTVSPost2010Prop46
 90
       50
102
RTVSPost2010PropOp46
 70
     1
102
RTVSPost2010Prop47
 90
       50
102
RTVSPost2010PropOp47
 70
     1
102
RTVSPost2010Prop48
 90
       50
102
RTVSPost2010PropOp48
 70
     1
102
RTVSPost2010Prop49
280
     0
102
RTVSPost2010PropOp49
 70
     1
102
RTVSPost2010Prop50
 90
       50
102
RTVSPost2010PropOp50
 70
     1
102
RTVSPost2010Prop51ColorIndex
 90
      256
102
RTVSPost2010Prop51ColorRGB
 90
-16777216
102
RTVSPost2010PropOp51
 70
     0
102
RTVSPost2010Prop52
140
1.0
102
RTVSPost2010PropOp52
 70
     0
102
RTVSPost2010Prop53
 90
        2
102
RTVSPost2010PropOp53
 70
     1
102
RTVSPost2010Prop54
  1
strokes_ogs.tif
102
RTVSPost2010PropOp54
 70
     1
102
RTVSPost2010Prop55
280
     0
102
RTVSPost2010PropOp55
 70
     1
102
RTVSPost2010Prop56
140
1.0
102
RTVSPost2010PropOp56
 70
     1
102
RTVSPost2010Prop57
140
1.0
102
RTVSPost2010PropOp57
 70
     1
  0
XRECORD
  5
590
102
{ACAD_REACTORS
330
58F
102
}
330
58F
100
AcDbXrecord
280
     1
102
RTVSPost2010Prop28
280
     0
102
RTVSPost2010PropOp28
 70
     1
102
RTVSPost2010Prop29
280
     1
102
RTVSPost2010PropOp29
 70
     1
102
RTVSPost2010Prop30
280
     1
102
RTVSPost2010PropOp30
 70
     1
102
RTVSPost2010Prop31
280
     0
102
RTVSPost2010PropOp31
 70
     1
102
RTVSPost2010Prop32
280
     0
102
RTVSPost2010PropOp32
 70
     1
102
RTVSPost2010Prop33
280
     0
102
RTVSPost2010PropOp33
 70
     1
102
RTVSPost2010Prop34
280
     0
102
RTVSPost2010PropOp34
 70
     1
102
RTVSPost2010Prop35
280
     0
102
RTVSPost2010PropOp35
 70
     1
102
RTVSPost2010Prop36
280
     0
102
RTVSPost2010PropOp36
 70
     1
102
RTVSPost2010Prop37
 90
       50
102
RTVSPost2010PropOp37
 70
     1
102
RTVSPost2010Prop38
140
0.0
102
RTVSPost2010PropOp38
 70
     1
102
RTVSPost2010Prop39
140
1.0
102
RTVSPost2010PropOp39
 70
     1
102
RTVSPost2010Prop40
 90
        0
102
RTVSPost2010PropOp40
 70
     1
102
RTVSPost2010Prop41ColorIndex
 90
       18
102
RTVSPost2010Prop41ColorRGB
 90
        0
102
RTVSPost2010PropOp41
 70
     1
102
RTVSPost2010Prop42
 90
       50
102
RTVSPost2010PropOp42
 70
     1
102
RTVSPost2010Prop43
 90
        3
102
RTVSPost2010PropOp43
 70
     1
102
RTVSPost2010Prop44ColorIndex
 90
        5
102
RTVSPost2010Prop44ColorRGB
 90
      255
102
RTVSPost2010PropOp44
 70
     1
102
RTVSPost2010Prop45
280
     0
102
RTVSPost2010PropOp45
 70
     1
102
RTVSPost2010Prop46
 90
       50
102
RTVSPost2010PropOp46
 70
     1
102
RTVSPost2010Prop47
 90
       50
102
RTVSPost2010PropOp47
 70
     1
102
RTVSPost2010Prop48
 90
       50
102
RTVSPost2010PropOp48
 70
     1
102
RTVSPost2010Prop49
280
     0
102
RTVSPost2010PropOp49
 70
     1
102
RTVSPost2010Prop50
 90
       50
102
RTVSPost2010PropOp50
 70
     1
102
RTVSPost2010Prop51ColorIndex
 90
      256
102
RTVSPost2010Prop51ColorRGB
 90
-16777216
102
RTVSPost2010PropOp51
 70
     0
102
RTVSPost2010Prop52
140
1.0
102
RTVSPost2010PropOp52
 70
     0
102
RTVSPost2010Prop53
 90
        2
102
RTVSPost2010PropOp53
 70
     1
102
RTVSPost2010Prop54
  1
strokes_ogs.tif
102
RTVSPost2010PropOp54
 70
     1
102
RTVSPost2010Prop55
280
     0
102
RTVSPost2010PropOp55
 70
     1
102
RTVSPost2010Prop56
140
1.0
102
RTVSPost2010PropOp56
 70
     1
102
RTVSPost2010Prop57
140
1.0
102
RTVSPost2010PropOp57
 70
     1
  0
XRECORD
  5
58E
102
{ACAD_REACTORS
330
58D
102
}
330
58D
100
AcDbXrecord
280
     1
102
RTVSPost2010Prop28
280
     0
102
RTVSPost2010PropOp28
 70
     1
102
RTVSPost2010Prop29
280
     1
102
RTVSPost2010PropOp29
 70
     1
102
RTVSPost2010Prop30
280
     1
102
RTVSPost2010PropOp30
 70
     1
102
RTVSPost2010Prop31
280
     0
102
RTVSPost2010PropOp31
 70
     1
102
RTVSPost2010Prop32
280
     0
102
RTVSPost2010PropOp32
 70
     1
102
RTVSPost2010Prop33
280
     0
102
RTVSPost2010PropOp33
 70
     1
102
RTVSPost2010Prop34
280
     0
102
RTVSPost2010PropOp34
 70
     1
102
RTVSPost2010Prop35
280
     0
102
RTVSPost2010PropOp35
 70
     1
102
RTVSPost2010Prop36
280
     0
102
RTVSPost2010PropOp36
 70
     1
102
RTVSPost2010Prop37
 90
       50
102
RTVSPost2010PropOp37
 70
     1
102
RTVSPost2010Prop38
140
0.0
102
RTVSPost2010PropOp38
 70
     1
102
RTVSPost2010Prop39
140
1.0
102
RTVSPost2010PropOp39
 70
     1
102
RTVSPost2010Prop40
 90
        0
102
RTVSPost2010PropOp40
 70
     1
102
RTVSPost2010Prop41ColorIndex
 90
       18
102
RTVSPost2010Prop41ColorRGB
 90
        0
102
RTVSPost2010PropOp41
 70
     1
102
RTVSPost2010Prop42
 90
       50
102
RTVSPost2010PropOp42
 70
     1
102
RTVSPost2010Prop43
 90
        3
102
RTVSPost2010PropOp43
 70
     1
102
RTVSPost2010Prop44ColorIndex
 90
        5
102
RTVSPost2010Prop44ColorRGB
 90
      255
102
RTVSPost2010PropOp44
 70
     1
102
RTVSPost2010Prop45
280
     0
102
RTVSPost2010PropOp45
 70
     1
102
RTVSPost2010Prop46
 90
       50
102
RTVSPost2010PropOp46
 70
     1
102
RTVSPost2010Prop47
 90
       50
102
RTVSPost2010PropOp47
 70
     1
102
RTVSPost2010Prop48
 90
       50
102
RTVSPost2010PropOp48
 70
     1
102
RTVSPost2010Prop49
280
     0
102
RTVSPost2010PropOp49
 70
     1
102
RTVSPost2010Prop50
 90
       50
102
RTVSPost2010PropOp50
 70
     1
102
RTVSPost2010Prop51ColorIndex
 90
      256
102
RTVSPost2010Prop51ColorRGB
 90
-16777216
102
RTVSPost2010PropOp51
 70
     0
102
RTVSPost2010Prop52
140
1.0
102
RTVSPost2010PropOp52
 70
     0
102
RTVSPost2010Prop53
 90
        2
102
RTVSPost2010PropOp53
 70
     1
102
RTVSPost2010Prop54
  1
strokes_ogs.tif
102
RTVSPost2010PropOp54
 70
     1
102
RTVSPost2010Prop55
280
     0
102
RTVSPost2010PropOp55
 70
     1
102
RTVSPost2010Prop56
140
1.0
102
RTVSPost2010PropOp56
 70
     1
102
RTVSPost2010Prop57
140
1.0
102
RTVSPost2010PropOp57
 70
     1
  0
XRECORD
  5
588
102
{ACAD_REACTORS
330
587
102
}
330
587
100
AcDbXrecord
280
     1
102
RTVSPost2010Prop28
280
     0
102
RTVSPost2010PropOp28
 70
     1
102
RTVSPost2010Prop29
280
     1
102
RTVSPost2010PropOp29
 70
     1
102
RTVSPost2010Prop30
280
     1
102
RTVSPost2010PropOp30
 70
     1
102
RTVSPost2010Prop31
280
     0
102
RTVSPost2010PropOp31
 70
     1
102
RTVSPost2010Prop32
280
     0
102
RTVSPost2010PropOp32
 70
     1
102
RTVSPost2010Prop33
280
     0
102
RTVSPost2010PropOp33
 70
     1
102
RTVSPost2010Prop34
280
     0
102
RTVSPost2010PropOp34
 70
     1
102
RTVSPost2010Prop35
280
     0
102
RTVSPost2010PropOp35
 70
     1
102
RTVSPost2010Prop36
280
     0
102
RTVSPost2010PropOp36
 70
     1
102
RTVSPost2010Prop37
 90
       50
102
RTVSPost2010PropOp37
 70
     1
102
RTVSPost2010Prop38
140
0.0
102
RTVSPost2010PropOp38
 70
     1
102
RTVSPost2010Prop39
140
1.0
102
RTVSPost2010PropOp39
 70
     1
102
RTVSPost2010Prop40
 90
        0
102
RTVSPost2010PropOp40
 70
     1
102
RTVSPost2010Prop41ColorIndex
 90
       18
102
RTVSPost2010Prop41ColorRGB
 90
        0
102
RTVSPost2010PropOp41
 70
     1
102
RTVSPost2010Prop42
 90
       50
102
RTVSPost2010PropOp42
 70
     1
102
RTVSPost2010Prop43
 90
        3
102
RTVSPost2010PropOp43
 70
     1
102
RTVSPost2010Prop44ColorIndex
 90
        5
102
RTVSPost2010Prop44ColorRGB
 90
      255
102
RTVSPost2010PropOp44
 70
     1
102
RTVSPost2010Prop45
280
     0
102
RTVSPost2010PropOp45
 70
     1
102
RTVSPost2010Prop46
 90
       50
102
RTVSPost2010PropOp46
 70
     1
102
RTVSPost2010Prop47
 90
       50
102
RTVSPost2010PropOp47
 70
     1
102
RTVSPost2010Prop48
 90
       50
102
RTVSPost2010PropOp48
 70
     1
102
RTVSPost2010Prop49
280
     0
102
RTVSPost2010PropOp49
 70
     1
102
RTVSPost2010Prop50
 90
       50
102
RTVSPost2010PropOp50
 70
     1
102
RTVSPost2010Prop51ColorIndex
 90
      256
102
RTVSPost2010Prop51ColorRGB
 90
-16777216
102
RTVSPost2010PropOp51
 70
     0
102
RTVSPost2010Prop52
140
1.0
102
RTVSPost2010PropOp52
 70
     0
102
RTVSPost2010Prop53
 90
        2
102
RTVSPost2010PropOp53
 70
     1
102
RTVSPost2010Prop54
  1
strokes_ogs.tif
102
RTVSPost2010PropOp54
 70
     1
102
RTVSPost2010Prop55
280
     0
102
RTVSPost2010PropOp55
 70
     1
102
RTVSPost2010Prop56
140
1.0
102
RTVSPost2010PropOp56
 70
     1
102
RTVSPost2010Prop57
140
1.0
102
RTVSPost2010PropOp57
 70
     1
  0
XRECORD
  5
58A
102
{ACAD_REACTORS
330
589
102
}
330
589
100
AcDbXrecord
280
     1
102
RTVSPost2010Prop28
280
     0
102
RTVSPost2010PropOp28
 70
     1
102
RTVSPost2010Prop29
280
     1
102
RTVSPost2010PropOp29
 70
     1
102
RTVSPost2010Prop30
280
     1
102
RTVSPost2010PropOp30
 70
     1
102
RTVSPost2010Prop31
280
     0
102
RTVSPost2010PropOp31
 70
     1
102
RTVSPost2010Prop32
280
     0
102
RTVSPost2010PropOp32
 70
     1
102
RTVSPost2010Prop33
280
     0
102
RTVSPost2010PropOp33
 70
     1
102
RTVSPost2010Prop34
280
     0
102
RTVSPost2010PropOp34
 70
     1
102
RTVSPost2010Prop35
280
     0
102
RTVSPost2010PropOp35
 70
     1
102
RTVSPost2010Prop36
280
     0
102
RTVSPost2010PropOp36
 70
     1
102
RTVSPost2010Prop37
 90
       50
102
RTVSPost2010PropOp37
 70
     1
102
RTVSPost2010Prop38
140
0.0
102
RTVSPost2010PropOp38
 70
     1
102
RTVSPost2010Prop39
140
1.0
102
RTVSPost2010PropOp39
 70
     1
102
RTVSPost2010Prop40
 90
        0
102
RTVSPost2010PropOp40
 70
     1
102
RTVSPost2010Prop41ColorIndex
 90
       18
102
RTVSPost2010Prop41ColorRGB
 90
        0
102
RTVSPost2010PropOp41
 70
     1
102
RTVSPost2010Prop42
 90
       50
102
RTVSPost2010PropOp42
 70
     1
102
RTVSPost2010Prop43
 90
        3
102
RTVSPost2010PropOp43
 70
     1
102
RTVSPost2010Prop44ColorIndex
 90
        5
102
RTVSPost2010Prop44ColorRGB
 90
      255
102
RTVSPost2010PropOp44
 70
     1
102
RTVSPost2010Prop45
280
     0
102
RTVSPost2010PropOp45
 70
     1
102
RTVSPost2010Prop46
 90
       50
102
RTVSPost2010PropOp46
 70
     1
102
RTVSPost2010Prop47
 90
       50
102
RTVSPost2010PropOp47
 70
     1
102
RTVSPost2010Prop48
 90
       50
102
RTVSPost2010PropOp48
 70
     1
102
RTVSPost2010Prop49
280
     0
102
RTVSPost2010PropOp49
 70
     1
102
RTVSPost2010Prop50
 90
       50
102
RTVSPost2010PropOp50
 70
     1
102
RTVSPost2010Prop51ColorIndex
 90
      256
102
RTVSPost2010Prop51ColorRGB
 90
-16777216
102
RTVSPost2010PropOp51
 70
     0
102
RTVSPost2010Prop52
140
1.0
102
RTVSPost2010PropOp52
 70
     0
102
RTVSPost2010Prop53
 90
        2
102
RTVSPost2010PropOp53
 70
     1
102
RTVSPost2010Prop54
  1
strokes_ogs.tif
102
RTVSPost2010PropOp54
 70
     1
102
RTVSPost2010Prop55
280
     0
102
RTVSPost2010PropOp55
 70
     1
102
RTVSPost2010Prop56
140
1.0
102
RTVSPost2010PropOp56
 70
     1
102
RTVSPost2010Prop57
140
1.0
102
RTVSPost2010PropOp57
 70
     1
  0
XRECORD
  5
57A
102
{ACAD_REACTORS
330
579
102
}
330
579
100
AcDbXrecord
280
     1
102
RTVSPost2010Prop28
280
     0
102
RTVSPost2010PropOp28
 70
     1
102
RTVSPost2010Prop29
280
     1
102
RTVSPost2010PropOp29
 70
     1
102
RTVSPost2010Prop30
280
     1
102
RTVSPost2010PropOp30
 70
     1
102
RTVSPost2010Prop31
280
     0
102
RTVSPost2010PropOp31
 70
     1
102
RTVSPost2010Prop32
280
     0
102
RTVSPost2010PropOp32
 70
     1
102
RTVSPost2010Prop33
280
     0
102
RTVSPost2010PropOp33
 70
     1
102
RTVSPost2010Prop34
280
     0
102
RTVSPost2010PropOp34
 70
     1
102
RTVSPost2010Prop35
280
     0
102
RTVSPost2010PropOp35
 70
     1
102
RTVSPost2010Prop36
280
     0
102
RTVSPost2010PropOp36
 70
     1
102
RTVSPost2010Prop37
 90
       50
102
RTVSPost2010PropOp37
 70
     1
102
RTVSPost2010Prop38
140
0.0
102
RTVSPost2010PropOp38
 70
     1
102
RTVSPost2010Prop39
140
1.0
102
RTVSPost2010PropOp39
 70
     1
102
RTVSPost2010Prop40
 90
        0
102
RTVSPost2010PropOp40
 70
     1
102
RTVSPost2010Prop41ColorIndex
 90
       18
102
RTVSPost2010Prop41ColorRGB
 90
        0
102
RTVSPost2010PropOp41
 70
     1
102
RTVSPost2010Prop42
 90
       50
102
RTVSPost2010PropOp42
 70
     1
102
RTVSPost2010Prop43
 90
        3
102
RTVSPost2010PropOp43
 70
     1
102
RTVSPost2010Prop44ColorIndex
 90
        5
102
RTVSPost2010Prop44ColorRGB
 90
      255
102
RTVSPost2010PropOp44
 70
     1
102
RTVSPost2010Prop45
280
     0
102
RTVSPost2010PropOp45
 70
     1
102
RTVSPost2010Prop46
 90
       50
102
RTVSPost2010PropOp46
 70
     1
102
RTVSPost2010Prop47
 90
       50
102
RTVSPost2010PropOp47
 70
     1
102
RTVSPost2010Prop48
 90
       50
102
RTVSPost2010PropOp48
 70
     1
102
RTVSPost2010Prop49
280
     0
102
RTVSPost2010PropOp49
 70
     1
102
RTVSPost2010Prop50
 90
       50
102
RTVSPost2010PropOp50
 70
     1
102
RTVSPost2010Prop51ColorIndex
 90
      256
102
RTVSPost2010Prop51ColorRGB
 90
-16777216
102
RTVSPost2010PropOp51
 70
     0
102
RTVSPost2010Prop52
140
1.0
102
RTVSPost2010PropOp52
 70
     0
102
RTVSPost2010Prop53
 90
        2
102
RTVSPost2010PropOp53
 70
     1
102
RTVSPost2010Prop54
  1
strokes_ogs.tif
102
RTVSPost2010PropOp54
 70
     1
102
RTVSPost2010Prop55
280
     0
102
RTVSPost2010PropOp55
 70
     1
102
RTVSPost2010Prop56
140
1.0
102
RTVSPost2010PropOp56
 70
     1
102
RTVSPost2010Prop57
140
1.0
102
RTVSPost2010PropOp57
 70
     1
  0
XRECORD
  5
56C
102
{ACAD_REACTORS
330
56B
102
}
330
56B
100
AcDbXrecord
280
     1
102
RTVSPost2010Prop28
280
     0
102
RTVSPost2010PropOp28
 70
     1
102
RTVSPost2010Prop29
280
     1
102
RTVSPost2010PropOp29
 70
     1
102
RTVSPost2010Prop30
280
     1
102
RTVSPost2010PropOp30
 70
     1
102
RTVSPost2010Prop31
280
     0
102
RTVSPost2010PropOp31
 70
     1
102
RTVSPost2010Prop32
280
     0
102
RTVSPost2010PropOp32
 70
     1
102
RTVSPost2010Prop33
280
     0
102
RTVSPost2010PropOp33
 70
     1
102
RTVSPost2010Prop34
280
     0
102
RTVSPost2010PropOp34
 70
     1
102
RTVSPost2010Prop35
280
     0
102
RTVSPost2010PropOp35
 70
     1
102
RTVSPost2010Prop36
280
     0
102
RTVSPost2010PropOp36
 70
     1
102
RTVSPost2010Prop37
 90
       50
102
RTVSPost2010PropOp37
 70
     1
102
RTVSPost2010Prop38
140
0.0
102
RTVSPost2010PropOp38
 70
     1
102
RTVSPost2010Prop39
140
1.0
102
RTVSPost2010PropOp39
 70
     1
102
RTVSPost2010Prop40
 90
        0
102
RTVSPost2010PropOp40
 70
     1
102
RTVSPost2010Prop41ColorIndex
 90
       18
102
RTVSPost2010Prop41ColorRGB
 90
        0
102
RTVSPost2010PropOp41
 70
     1
102
RTVSPost2010Prop42
 90
       50
102
RTVSPost2010PropOp42
 70
     1
102
RTVSPost2010Prop43
 90
        3
102
RTVSPost2010PropOp43
 70
     1
102
RTVSPost2010Prop44ColorIndex
 90
        5
102
RTVSPost2010Prop44ColorRGB
 90
      255
102
RTVSPost2010PropOp44
 70
     1
102
RTVSPost2010Prop45
280
     0
102
RTVSPost2010PropOp45
 70
     1
102
RTVSPost2010Prop46
 90
       50
102
RTVSPost2010PropOp46
 70
     1
102
RTVSPost2010Prop47
 90
       50
102
RTVSPost2010PropOp47
 70
     1
102
RTVSPost2010Prop48
 90
       50
102
RTVSPost2010PropOp48
 70
     1
102
RTVSPost2010Prop49
280
     0
102
RTVSPost2010PropOp49
 70
     1
102
RTVSPost2010Prop50
 90
       50
102
RTVSPost2010PropOp50
 70
     1
102
RTVSPost2010Prop51ColorIndex
 90
      256
102
RTVSPost2010Prop51ColorRGB
 90
-16777216
102
RTVSPost2010PropOp51
 70
     0
102
RTVSPost2010Prop52
140
1.0
102
RTVSPost2010PropOp52
 70
     0
102
RTVSPost2010Prop53
 90
        2
102
RTVSPost2010PropOp53
 70
     1
102
RTVSPost2010Prop54
  1
strokes_ogs.tif
102
RTVSPost2010PropOp54
 70
     1
102
RTVSPost2010Prop55
280
     0
102
RTVSPost2010PropOp55
 70
     1
102
RTVSPost2010Prop56
140
1.0
102
RTVSPost2010PropOp56
 70
     1
102
RTVSPost2010Prop57
140
1.0
102
RTVSPost2010PropOp57
 70
     1
  0
XRECORD
  5
58C
102
{ACAD_REACTORS
330
58B
102
}
330
58B
100
AcDbXrecord
280
     1
102
RTVSPost2010Prop28
280
     0
102
RTVSPost2010PropOp28
 70
     1
102
RTVSPost2010Prop29
280
     1
102
RTVSPost2010PropOp29
 70
     1
102
RTVSPost2010Prop30
280
     1
102
RTVSPost2010PropOp30
 70
     1
102
RTVSPost2010Prop31
280
     0
102
RTVSPost2010PropOp31
 70
     1
102
RTVSPost2010Prop32
280
     0
102
RTVSPost2010PropOp32
 70
     1
102
RTVSPost2010Prop33
280
     0
102
RTVSPost2010PropOp33
 70
     1
102
RTVSPost2010Prop34
280
     0
102
RTVSPost2010PropOp34
 70
     1
102
RTVSPost2010Prop35
280
     0
102
RTVSPost2010PropOp35
 70
     1
102
RTVSPost2010Prop36
280
     0
102
RTVSPost2010PropOp36
 70
     1
102
RTVSPost2010Prop37
 90
       50
102
RTVSPost2010PropOp37
 70
     1
102
RTVSPost2010Prop38
140
0.0
102
RTVSPost2010PropOp38
 70
     1
102
RTVSPost2010Prop39
140
1.0
102
RTVSPost2010PropOp39
 70
     1
102
RTVSPost2010Prop40
 90
        0
102
RTVSPost2010PropOp40
 70
     1
102
RTVSPost2010Prop41ColorIndex
 90
       18
102
RTVSPost2010Prop41ColorRGB
 90
        0
102
RTVSPost2010PropOp41
 70
     1
102
RTVSPost2010Prop42
 90
       50
102
RTVSPost2010PropOp42
 70
     1
102
RTVSPost2010Prop43
 90
        3
102
RTVSPost2010PropOp43
 70
     1
102
RTVSPost2010Prop44ColorIndex
 90
        5
102
RTVSPost2010Prop44ColorRGB
 90
      255
102
RTVSPost2010PropOp44
 70
     1
102
RTVSPost2010Prop45
280
     0
102
RTVSPost2010PropOp45
 70
     1
102
RTVSPost2010Prop46
 90
       50
102
RTVSPost2010PropOp46
 70
     1
102
RTVSPost2010Prop47
 90
       50
102
RTVSPost2010PropOp47
 70
     1
102
RTVSPost2010Prop48
 90
       50
102
RTVSPost2010PropOp48
 70
     1
102
RTVSPost2010Prop49
280
     0
102
RTVSPost2010PropOp49
 70
     1
102
RTVSPost2010Prop50
 90
       50
102
RTVSPost2010PropOp50
 70
     1
102
RTVSPost2010Prop51ColorIndex
 90
      256
102
RTVSPost2010Prop51ColorRGB
 90
-16777216
102
RTVSPost2010PropOp51
 70
     0
102
RTVSPost2010Prop52
140
1.0
102
RTVSPost2010PropOp52
 70
     0
102
RTVSPost2010Prop53
 90
        2
102
RTVSPost2010PropOp53
 70
     1
102
RTVSPost2010Prop54
  1
strokes_ogs.tif
102
RTVSPost2010PropOp54
 70
     1
102
RTVSPost2010Prop55
280
     0
102
RTVSPost2010PropOp55
 70
     1
102
RTVSPost2010Prop56
140
1.0
102
RTVSPost2010PropOp56
 70
     1
102
RTVSPost2010Prop57
140
1.0
102
RTVSPost2010PropOp57
 70
     1
  0
ENDSEC
  0
EOF
